999
DXF file: 22036sde.dxf
999
Pro/ENGINEER 2020454 by Parametric Technology Corporation
  0
SECTION
  2
HEADER
  9
$ACADVER
  1
AC1032
  9
$DWGCODEPAGE
  3
ANSI_936
  9
$EXTMAX
 10
10.9528433451
 20
16.7100889292
 30
0.0
  9
$EXTMIN
 10
0.0
 20
0.0
 30
0.0
  9
$LIMMIN
 10
0.0
 20
0.0
  9
$LIMMAX
 10
10.9528433451
 20
16.7100889292
  9
$VIEWCTR
 10
5.4764216726
 20
8.3550444646
  9
$VIEWSIZE
 40
16.7100889292
  9
$CLAYER
  8
0
  9
$LTSCALE
 40
1.0892502413
  9
$CELTYPE
  6
BYLAYER
  9
$DIMSCALE
 40
1.0
  9
$DIMASZ
 40
4.7625
  9
$DIMEXO
 40
1.0
  9
$DIMDLI
 40
0.752572894
  9
$DIMEXE
 40
1.5
  9
$DIMCEN
 40
0.1782409486
  9
$DIMLFAC
 40
1.0
  9
$DIMBLK
  1
_FILLED
  9
$DIMALT
 70
0
  9
$DIMALTF
 40
25.4
  9
$DIMTXT
 40
3.96875
  9
$DIMTOL
 70
1
  9
$DIMLIM
 70
0
  9
$DIMTFAC
 40
1.0
  9
$DIMTP
 40
0.01
  9
$DIMTM
 40
0.01
  9
$DIMGAP
 40
0.09
  9
$DIMDSEP
 70
46
  9
$AUNITS
 70
0
  9
$PDMODE
 70
3
  9
$PDSIZE
 40
7.9375
  9
$HANDSEED
  5
2D1
  9
$TILEMODE
 70
1
  9
$MEASUREMENT
 70
0
  9
$INSUNITS
 70
1
  0
ENDSEC
  0
SECTION
  2
CLASSES
  0
CLASS
  1
ACDBDICTIONARYWDFLT
  2
AcDbDictionaryWithDefault
  3
AutoCAD 2000
 90
0
 91
1
280
0
281
0
  0
CLASS
  1
ACDBPLACEHOLDER
  2
AcDbPlaceHolder
  3
AutoCAD 2000
 90
0
 91
1
280
0
281
0
  0
CLASS
  1
LAYOUT
  2
AcDbLayout
  3
AutoCAD 2000
 90
0
 91
0
280
0
281
0
  0
ENDSEC
  0
SECTION
  2
TABLES
  0
TABLE
  2
VPORT
  5
8
100
AcDbSymbolTable
 70
2
  0
VPORT
  5
1F4
100
AcDbSymbolTableRecord
100
AcDbViewportTableRecord
  2
*ACTIVE
 70
0
 10
0.0
 20
0.0
 11
1.0
 21
1.0
 12
5.4764216726
 22
8.3550444646
 13
0.0
 23
0.0
 14
1.0
 24
1.0
 15
0.0
 25
0.0
 16
0.0
 26
0.0
 36
1.0
 17
0.0
 27
0.0
 37
0.0
 40
16.7100889292
 41
0.6554628998
 42
50.0
 43
0.0
 44
0.0
 50
0.0
 51
0.0
 71
0
 72
100
 73
1
 74
1
 75
0
 76
0
 77
0
 78
0
  0
ENDTAB
  0
TABLE
  2
LTYPE
  5
5
100
AcDbSymbolTable
 70
6
  0
LTYPE
  5
14
100
AcDbSymbolTableRecord
100
AcDbLinetypeTableRecord
  2
BYBLOCK
 70
0
  3

 72
65
 73
0
 40
0.0
  0
LTYPE
  5
15
100
AcDbSymbolTableRecord
100
AcDbLinetypeTableRecord
  2
BYLAYER
 70
0
  3

 72
65
 73
0
 40
0.0
  0
LTYPE
  5
16
100
AcDbSymbolTableRecord
100
AcDbLinetypeTableRecord
  2
CONTINUOUS
 70
64
  3
Solid line
 72
65
 73
0
 40
0.0
  0
LTYPE
  5
1F5
100
AcDbSymbolTableRecord
100
AcDbLinetypeTableRecord
  2
CENTER
 70
64
  3
____ _ ____ _ ____ _ ____ _ ____ _ ____ _ ____
 72
65
 73
4
 40
0.6
 49
0.375
 74
0
 49
-0.075
 74
0
 49
0.075
 74
0
 49
-0.075
 74
0
  0
LTYPE
  5
1F6
100
AcDbSymbolTableRecord
100
AcDbLinetypeTableRecord
  2
HIDDEN
 70
64
  3
- - - - - - - - - - - - - - - - - - - -
 72
65
 73
2
 40
0.2
 49
0.1
 74
0
 49
-0.1
 74
0
  0
LTYPE
  5
1F7
100
AcDbSymbolTableRecord
100
AcDbLinetypeTableRecord
  2
PHANTOM
 70
64
  3
_____ _ _ _____ _ _ _____ _ _ _____
 72
65
 73
6
 40
0.8
 49
0.45
 74
0
 49
-0.05
 74
0
 49
0.1
 74
0
 49
-0.05
 74
0
 49
0.1
 74
0
 49
-0.05
 74
0
  0
LTYPE
  5
1F8
100
AcDbSymbolTableRecord
100
AcDbLinetypeTableRecord
  2
DOT
 70
64
  3
. . . . . . . . . . . . . . . . . . . .
 72
65
 73
2
 40
0.2
 49
0.1
 74
0
 49
-0.1
 74
0
  0
LTYPE
  5
1F9
100
AcDbSymbolTableRecord
100
AcDbLinetypeTableRecord
  2
DASHED
 70
64
  3
- - - - - - - - - - - - - - - - - - - -
 72
65
 73
2
 40
0.2
 49
0.1
 74
0
 49
-0.1
 74
0
  0
ENDTAB
  0
TABLE
  2
LAYER
  5
2
100
AcDbSymbolTable
 70
36
  0
LAYER
  5
10
100
AcDbSymbolTableRecord
100
AcDbLayerTableRecord
  2
0
 70
0
 62
7
  6
CONTINUOUS
370
-3
390
F
  0
LAYER
  5
1FA
100
AcDbSymbolTableRecord
100
AcDbLayerTableRecord
  2
DEFAULT_1
 70
0
 62
7
  6
CENTER
370
-3
390
F
  0
LAYER
  5
1FB
100
AcDbSymbolTableRecord
100
AcDbLayerTableRecord
  2
DEFAULT_2
 70
0
 62
8
  6
HIDDEN
370
-3
390
F
  0
LAYER
  5
1FC
100
AcDbSymbolTableRecord
100
AcDbLayerTableRecord
  2
DEFAULT_3
 70
0
 62
7
  6
PHANTOM
370
-3
390
F
  0
LAYER
  5
1FD
100
AcDbSymbolTableRecord
100
AcDbLayerTableRecord
  2
Defpoints
 70
0
 62
7
  6
CONTINUOUS
290
0
370
-3
390
F
  0
LAYER
  5
1FE
100
AcDbSymbolTableRecord
100
AcDbLayerTableRecord
  2
___NOTE
 70
0
 62
7
  6
CONTINUOUS
370
-3
390
F
  0
ENDTAB
  0
TABLE
  2
STYLE
  5
3
100
AcDbSymbolTable
 70
1
  0
STYLE
  5
11
100
AcDbSymbolTableRecord
100
AcDbTextStyleTableRecord
  2
STANDARD
 70
0
 40
0.0
 41
0.8
 50
0.0
 71
0
 42
0.2
  3
txt
  4

  0
STYLE
  5
1FF
100
AcDbSymbolTableRecord
100
AcDbTextStyleTableRecord
  2
TEXTSTYLE_1
 70
0
 40
0.0
 41
0.8
 50
0.0
 71
0
 42
0.2
  3
gdt
  4

  0
ENDTAB
  0
TABLE
  2
VIEW
  5
6
100
AcDbSymbolTable
 70
0
  0
ENDTAB
  0
TABLE
  2
UCS
  5
7
100
AcDbSymbolTable
 70
0
  0
ENDTAB
  0
TABLE
  2
APPID
  5
9
100
AcDbSymbolTable
 70
1
  0
APPID
  5
200
100
AcDbSymbolTableRecord
100
AcDbRegAppTableRecord
  2
ACAD
 70
0
  0
ENDTAB
  0
TABLE
  2
BLOCK_RECORD
  5
1
100
AcDbSymbolTable
 70
0
  0
BLOCK_RECORD
  5
201
100
AcDbSymbolTableRecord
100
AcDbBlockTableRecord
  2
*Model_Space
  0
BLOCK_RECORD
  5
202
100
AcDbSymbolTableRecord
100
AcDbBlockTableRecord
  2
*Paper_Space
  0
BLOCK_RECORD
  5
203
100
AcDbSymbolTableRecord
100
AcDbBlockTableRecord
  2
_FILLED
  0
ENDTAB
  0
TABLE
  2
DIMSTYLE
  5
A
100
AcDbSymbolTable
 70
1
100
AcDbDimStyleTable
 71
0
  0
DIMSTYLE
105
204
100
AcDbSymbolTableRecord
100
AcDbDimStyleTableRecord
  2
STANDARD
 70
0
  3

  4

 40
1.0
 41
4.7625
 42
1.0
 43
0.38
 44
1.5
 45
0.0
 46
0.0
 47
0.01
 48
0.01
140
3.96875
141
0.09
142
0.0
143
25.4
144
1.0
145
0.0
146
1.0
147
0.09
 71
1
 72
0
 73
1
 74
1
 75
0
 76
0
 77
0
 78
8
 79
2
170
0
171
2
172
0
173
0
174
0
175
0
176
0
177
0
178
0
270
2
179
3
271
3
272
3
273
2
274
2
275
0
280
0
281
0
282
0
283
1
284
8
285
0
286
0
287
3
288
0
340
11
278
46
341
203
342
203
343
203
344
203
  0
ENDTAB
  0
ENDSEC
  0
SECTION
  2
BLOCKS
  0
BLOCK
  5
20
100
AcDbEntity
  8
0
100
AcDbBlockBegin
  2
*Model_Space
 70
0
 10
0.0
 20
0.0
 30
0.0
  3
*Model_Space
  1

  0
ENDBLK
  5
21
100
AcDbEntity
  8
0
100
AcDbBlockEnd
  0
BLOCK
  5
1C
100
AcDbEntity
  8
0
100
AcDbBlockBegin
  2
*Paper_Space
 70
0
 10
0.0
 20
0.0
 30
0.0
  3
*Paper_Space
  1

  0
ENDBLK
  5
1D
100
AcDbEntity
  8
0
100
AcDbBlockEnd
  0
BLOCK
  5
205
100
AcDbEntity
  8
0
100
AcDbBlockBegin
  2
_FILLED
 70
64
 10
0.0
 20
0.0
  3
_FILLED
  1

  0
SOLID
  5
206
100
AcDbEntity
  8
0
  6
BYBLOCK
 62
0
100
AcDbTrace
 10
0.0
 20
0.0
 11
-1.0
 21
0.1666666667
 12
-1.0
 22
-0.1666666667
 13
-1.0
 23
-0.1666666667
  0
ENDBLK
  5
207
100
AcDbEntity
  8
0
  6
BYBLOCK
 62
0
100
AcDbBlockEnd
  0
ENDSEC
  0
SECTION
  2
ENTITIES
  0
LWPOLYLINE
  5
208
100
AcDbEntity
  8
Defpoints
100
AcDbPolyline
 62
7
  6
CONTINUOUS
 90
4
 70
0
 43
0.3809999849
 10
9.70119729
 20
0.0
 10
9.7007971859
 20
0.0
 10
9.7007971859
 20
0.001
 10
9.70119729
 20
0.001
  0
LINE
  5
209
100
AcDbEntity
  8
0
100
AcDbLine
 62
7
  6
CONTINUOUS
 10
0.0
 20
0.0
 11
10.9528433451
 21
0.0
  0
LWPOLYLINE
  5
20A
100
AcDbEntity
  8
Defpoints
100
AcDbPolyline
 62
7
  6
CONTINUOUS
 90
2
 70
0
 43
0.3809999849
 10
9.6992475379
 20
0.0003333333
 10
9.6995473138
 20
0.0003333333
  0
LWPOLYLINE
  5
20B
100
AcDbEntity
  8
Defpoints
100
AcDbPolyline
 62
7
  6
CONTINUOUS
 90
2
 70
0
 43
0.3809999849
 10
9.7032473704
 20
0.0003333333
 10
9.7035471463
 20
0.0003333333
  0
LWPOLYLINE
  5
20C
100
AcDbEntity
  8
Defpoints
100
AcDbPolyline
 62
7
  6
CONTINUOUS
 90
2
 70
0
 43
0.3809999849
 10
9.7007971859
 20
0.0005
 10
9.7010474021
 20
0.0005
  0
LWPOLYLINE
  5
20D
100
AcDbEntity
  8
Defpoints
100
AcDbPolyline
 62
7
  6
CONTINUOUS
 90
2
 70
0
 43
0.3809999849
 10
9.6999474179
 20
0.001
 10
9.7004478503
 20
0.001
  0
LWPOLYLINE
  5
20E
100
AcDbEntity
  8
Defpoints
100
AcDbPolyline
 62
7
  6
CONTINUOUS
 90
12
 70
0
 43
0.3809999849
 10
9.7007971859
 20
0.0026666665
 10
9.7009978424
 20
0.0026666665
 10
9.7010969618
 20
0.0025833335
 10
9.7011477303
 20
0.0025000001
 10
9.70119729
 20
0.0024166667
 10
9.7012480585
 20
0.0021666667
 10
9.70119729
 20
0.0019166667
 10
9.7011477303
 20
0.0018333333
 10
9.7010969618
 20
0.00175
 10
9.7009978424
 20
0.0016666667
 10
9.7007971859
 20
0.0016666667
 10
9.7007971859
 20
0.0026666665
  0
LWPOLYLINE
  5
20F
100
AcDbEntity
  8
Defpoints
100
AcDbPolyline
 62
7
  6
CONTINUOUS
 90
2
 70
0
 43
0.3809999849
 10
9.7031470422
 20
0.0026666665
 10
9.7036474745
 20
0.0026666665
  0
LWPOLYLINE
  5
210
100
AcDbEntity
  8
Defpoints
100
AcDbPolyline
 62
7
  6
CONTINUOUS
 90
4
 70
0
 43
0.3809999849
 10
9.7019974983
 20
0.0033333333
 10
9.7015973942
 20
0.0033333333
 10
9.7015973942
 20
0.0043333334
 10
9.7019974983
 20
0.0043333334
  0
LWPOLYLINE
  5
211
100
AcDbEntity
  8
Defpoints
100
AcDbPolyline
 62
7
  6
CONTINUOUS
 90
4
 70
0
 43
0.3809999849
 10
9.7051971225
 20
0.0033333333
 10
9.7047970184
 20
0.0033333333
 10
9.7047970184
 20
0.0043333334
 10
9.7051971225
 20
0.0043333334
  0
LWPOLYLINE
  5
212
100
AcDbEntity
  8
Defpoints
100
AcDbPolyline
 62
7
  6
CONTINUOUS
 90
2
 70
0
 43
0.3809999849
 10
9.7000477462
 20
0.0036666666
 10
9.7003475221
 20
0.0036666666
  0
LWPOLYLINE
  5
213
100
AcDbEntity
  8
Defpoints
100
AcDbPolyline
 62
7
  6
CONTINUOUS
 90
2
 70
0
 43
0.3809999849
 10
9.7032473704
 20
0.0036666666
 10
9.7035471463
 20
0.0036666666
  0
LWPOLYLINE
  5
214
100
AcDbEntity
  8
Defpoints
100
AcDbPolyline
 62
7
  6
CONTINUOUS
 90
2
 70
0
 43
0.3809999849
 10
9.7015973942
 20
0.0038333333
 10
9.7018476103
 20
0.0038333333
  0
LWPOLYLINE
  5
215
100
AcDbEntity
  8
Defpoints
100
AcDbPolyline
 62
7
  6
CONTINUOUS
 90
2
 70
0
 43
0.3809999849
 10
9.7047970184
 20
0.0038333333
 10
9.7050472346
 20
0.0038333333
  0
LWPOLYLINE
  5
216
100
AcDbEntity
  8
Defpoints
100
AcDbPolyline
 62
7
  6
CONTINUOUS
 90
2
 70
0
 43
0.3809999849
 10
9.6983470014
 20
0.0043333334
 10
9.6988474338
 20
0.0043333334
  0
LWPOLYLINE
  5
217
100
AcDbEntity
  8
Defpoints
100
AcDbPolyline
 62
7
  6
CONTINUOUS
 90
12
 70
0
 43
0.3809999849
 10
9.7007971859
 20
0.0043333334
 10
9.7009978424
 20
0.0043333334
 10
9.7010969618
 20
0.00425
 10
9.7011477303
 20
0.0041666666
 10
9.70119729
 20
0.0040833332
 10
9.7012480585
 20
0.0038333333
 10
9.70119729
 20
0.0035833335
 10
9.7011477303
 20
0.0035000001
 10
9.7010969618
 20
0.0034166667
 10
9.7009978424
 20
0.0033333333
 10
9.7007971859
 20
0.0033333333
 10
9.7007971859
 20
0.0043333334
  0
LWPOLYLINE
  5
218
100
AcDbEntity
  8
Defpoints
100
AcDbPolyline
 62
7
  6
CONTINUOUS
 90
4
 70
0
 43
0.3809999849
 10
9.70119729
 20
0.0050000001
 10
9.7007971859
 20
0.0050000001
 10
9.7007971859
 20
0.0060000002
 10
9.70119729
 20
0.0060000002
  0
LWPOLYLINE
  5
219
100
AcDbEntity
  8
Defpoints
100
AcDbPolyline
 62
7
  6
CONTINUOUS
 90
4
 70
0
 43
0.3809999849
 10
9.7059973308
 20
0.0050000001
 10
9.7055972266
 20
0.0050000001
 10
9.7055972266
 20
0.0060000002
 10
9.7059973308
 20
0.0060000002
  0
LWPOLYLINE
  5
21A
100
AcDbEntity
  8
Defpoints
100
AcDbPolyline
 62
7
  6
CONTINUOUS
 90
2
 70
0
 43
0.3809999849
 10
9.7007971859
 20
0.0054999999
 10
9.7010474021
 20
0.0054999999
  0
LWPOLYLINE
  5
21B
100
AcDbEntity
  8
Defpoints
100
AcDbPolyline
 62
7
  6
CONTINUOUS
 90
2
 70
0
 43
0.3809999849
 10
9.7055972266
 20
0.0054999999
 10
9.7058474428
 20
0.0054999999
  0
LWPOLYLINE
  5
21C
100
AcDbEntity
  8
Defpoints
100
AcDbPolyline
 62
7
  6
CONTINUOUS
 90
2
 70
0
 43
0.3809999849
 10
9.7047474587
 20
0.0055833332
 10
9.7050980031
 20
0.0055833332
  0
LWPOLYLINE
  5
21D
100
AcDbEntity
  8
Defpoints
100
AcDbPolyline
 62
7
  6
CONTINUOUS
 90
3
 70
0
 43
0.3809999849
 10
9.6999969777
 20
0.0060000002
 10
9.7001976341
 20
0.0060000002
 10
9.7002979623
 20
0.0059166668
  0
LINE
  5
21E
100
AcDbEntity
  8
0
100
AcDbLine
 62
7
  6
CONTINUOUS
 10
8.4528537323
 20
0.0095546236
 11
10.9528332356
 21
0.0095546236
  0
LINE
  5
21F
100
AcDbEntity
  8
0
100
AcDbLine
 62
7
  6
CONTINUOUS
 10
8.7128436228
 20
0.7095546236
 11
10.6928433451
 21
0.7095546236
  0
LINE
  5
220
100
AcDbEntity
  8
0
100
AcDbLine
 62
7
  6
CONTINUOUS
 10
10.6632095341
 20
0.7695544818
 11
8.7328462226
 21
0.7695546236
  0
LINE
  5
221
100
AcDbEntity
  8
0
100
AcDbLine
 62
7
  6
CONTINUOUS
 10
0.0
 20
0.0
 11
0.0
 21
16.7100889292
  0
LINE
  5
222
100
AcDbEntity
  8
0
100
AcDbLine
 62
7
  6
CONTINUOUS
 10
0.074058042
 20
9.937339657
 11
0.0720881029
 21
9.9297160447
  0
LINE
  5
223
100
AcDbEntity
  8
0
100
AcDbLine
 62
7
  6
CONTINUOUS
 10
0.8273582362
 20
12.7938259364
 11
0.0016123612
 21
9.9981158167
  0
LINE
  5
224
100
AcDbEntity
  8
0
100
AcDbLine
 62
7
  6
CONTINUOUS
 10
0.3831896043
 20
9.8493275105
 11
0.3623300688
 21
9.7630667449
  0
LINE
  5
225
100
AcDbEntity
  8
0
100
AcDbLine
 62
7
  6
CONTINUOUS
 10
1.8718323063
 20
12.2700716417
 11
1.9188740024
 21
12.5115926606
  0
LINE
  5
226
100
AcDbEntity
  8
0
100
AcDbLine
 62
7
  6
CONTINUOUS
 10
1.1247285566
 20
9.5662218244
 11
1.1468805714
 21
9.6519899948
  0
LINE
  5
227
100
AcDbEntity
  8
0
100
AcDbLine
 62
7
  6
CONTINUOUS
 10
1.4593314139
 20
9.5712527912
 11
1.4613426823
 21
9.5790402524
  0
LINE
  5
228
100
AcDbEntity
  8
0
100
AcDbLine
 62
7
  6
CONTINUOUS
 10
1.9324583445
 20
12.5681911299
 11
2.0406967473
 21
12.9871045624
  0
LINE
  5
229
100
AcDbEntity
  8
0
100
AcDbLine
 62
7
  6
CONTINUOUS
 10
1.9922490917
 20
12.1681485463
 11
1.8691278974
 21
11.69167278
  0
LINE
  5
22A
100
AcDbEntity
  8
0
100
AcDbLine
 62
7
  6
CONTINUOUS
 10
1.914228217
 20
11.1922577748
 11
1.7792711058
 21
10.6708790354
  0
LINE
  5
22B
100
AcDbEntity
  8
0
100
AcDbLine
 62
7
  6
CONTINUOUS
 10
1.8867328608
 20
11.2400843156
 11
1.8867196945
 21
11.2400336478
  0
LINE
  5
22C
100
AcDbEntity
  8
0
100
AcDbLine
 62
7
  6
CONTINUOUS
 10
1.7240849581
 20
10.4080316449
 11
1.7019360318
 21
10.3368727056
  0
LINE
  5
22D
100
AcDbEntity
  8
0
100
AcDbLine
 62
7
  6
CONTINUOUS
 10
1.7818620779
 20
10.586228847
 11
1.7240849581
 21
10.4080316449
  0
LINE
  5
22E
100
AcDbEntity
  8
0
100
AcDbLine
 62
7
  6
CONTINUOUS
 10
1.7219611204
 20
11.2861480548
 11
1.743357274
 21
11.3238958509
  0
LINE
  5
22F
100
AcDbEntity
  8
0
100
AcDbLine
 62
7
  6
CONTINUOUS
 10
1.6557016112
 20
10.8342768398
 11
1.6567912668
 21
11.0232412382
  0
LINE
  5
230
100
AcDbEntity
  8
0
100
AcDbLine
 62
7
  6
CONTINUOUS
 10
10.8529528809
 20
0.2820858706
 11
10.890776914
 21
0.2556216696
  0
LINE
  5
231
100
AcDbEntity
  8
0
100
AcDbLine
 62
7
  6
CONTINUOUS
 10
9.045457451
 20
5.4819113418
 11
9.0457642806
 21
5.4819118054
  0
LINE
  5
232
100
AcDbEntity
  8
0
100
AcDbLine
 62
7
  6
CONTINUOUS
 10
9.0678433451
 20
5.5195550513
 11
9.4506753954
 21
5.5195550513
  0
LINE
  5
233
100
AcDbEntity
  8
0
100
AcDbLine
 62
7
  6
CONTINUOUS
 10
10.4142216068
 20
5.5195546236
 11
9.955011573
 21
5.5195550542
  0
LINE
  5
234
100
AcDbEntity
  8
0
100
AcDbLine
 62
7
  6
CONTINUOUS
 10
10.4164355356
 20
5.5495546236
 11
9.959203642
 21
5.5495546236
  0
LINE
  5
235
100
AcDbEntity
  8
0
100
AcDbLine
 62
7
  6
CONTINUOUS
 10
9.0692511546
 20
5.5495546236
 11
9.446483326
 21
5.5495546236
  0
LINE
  5
236
100
AcDbEntity
  8
0
100
AcDbLine
 62
7
  6
CONTINUOUS
 10
1.7780840307
 20
10.6470332262
 11
1.7835388849
 21
10.6118477404
  0
LWPOLYLINE
  5
237
100
AcDbEntity
  8
Defpoints
100
AcDbPolyline
 62
7
  6
CONTINUOUS
 90
4
 70
0
 43
0.3809999849
 10
9.7002979623
 20
0.0059166668
 10
9.7003970818
 20
0.00575
 10
9.7004478503
 20
0.0054999999
 10
9.7003970818
 20
0.0052500003
  0
LWPOLYLINE
  5
238
100
AcDbEntity
  8
Defpoints
100
AcDbPolyline
 62
7
  6
CONTINUOUS
 90
6
 70
0
 43
0.3809999849
 10
9.7051971225
 20
0.0054166665
 10
9.7050980031
 20
0.0055833332
 10
9.7051475628
 20
0.0056666666
 10
9.7051475628
 20
0.0059166668
 10
9.7050980031
 20
0.0060000002
 10
9.7047474587
 20
0.0060000002
  0
LINE
  5
239
100
AcDbEntity
  8
0
100
AcDbLine
 62
7
  6
CONTINUOUS
 10
0.3694335117
 20
9.7512240315
 11
1.1127366172
 21
9.559154733
  0
LINE
  5
23A
100
AcDbEntity
  8
0
100
AcDbLine
 62
7
  6
CONTINUOUS
 10
0.029520922
 20
9.9488480353
 11
1.5107664698
 21
9.566275185
  0
LINE
  5
23B
100
AcDbEntity
  8
0
100
AcDbLine
 62
7
  6
CONTINUOUS
 10
0.0720881029
 20
9.9297160447
 11
1.4593314139
 21
9.5712527912
  0
LINE
  5
23C
100
AcDbEntity
  8
0
100
AcDbLine
 62
7
  6
CONTINUOUS
 10
1.7219644004
 20
11.2861471379
 11
1.8867328608
 21
11.2400843156
  0
LWPOLYLINE
  5
23D
100
AcDbEntity
  8
Defpoints
100
AcDbPolyline
 62
7
  6
CONTINUOUS
 90
2
 70
0
 43
0.3809999849
 10
9.6994469856
 20
0.0021666667
 10
9.6995980823
 20
0.0016666667
  0
LWPOLYLINE
  5
23E
100
AcDbEntity
  8
Defpoints
100
AcDbPolyline
 62
7
  6
CONTINUOUS
 90
2
 70
0
 43
0.3809999849
 10
9.6994469856
 20
0.0038333333
 10
9.6995980823
 20
0.0033333333
  0
LWPOLYLINE
  5
23F
100
AcDbEntity
  8
Defpoints
100
AcDbPolyline
 62
7
  6
CONTINUOUS
 90
2
 70
0
 43
0.3809999849
 10
9.7018476103
 20
0.0005
 10
9.7019974983
 20
0.0
  0
LWPOLYLINE
  5
240
100
AcDbEntity
  8
Defpoints
100
AcDbPolyline
 62
7
  6
CONTINUOUS
 90
2
 70
0
 43
0.3809999849
 10
9.7066476511
 20
0.0054999999
 10
9.706797539
 20
0.0050000001
  0
LINE
  5
241
100
AcDbEntity
  8
0
100
AcDbLine
 62
7
  6
CONTINUOUS
 10
1.8331520797
 20
11.6704715057
 11
1.7633465873
 21
11.6885092239
  0
LINE
  5
242
100
AcDbEntity
  8
0
100
AcDbLine
 62
7
  6
CONTINUOUS
 10
1.846732358
 20
12.2362474413
 11
1.9710478175
 21
12.204124364
  0
LINE
  5
243
100
AcDbEntity
  8
0
100
AcDbLine
 62
7
  6
CONTINUOUS
 10
8.7128436228
 20
0.7495546236
 11
8.7128436228
 21
0.7095546236
  0
LINE
  5
244
100
AcDbEntity
  8
0
100
AcDbLine
 62
7
  6
CONTINUOUS
 10
8.7232457279
 20
3.1919293615
 11
8.702886313
 21
0.8095082963
  0
LINE
  5
245
100
AcDbEntity
  8
0
100
AcDbLine
 62
7
  6
CONTINUOUS
 10
8.4610364798
 20
0.1572947345
 11
8.4528436228
 21
0.0095546236
  0
LINE
  5
246
100
AcDbEntity
  8
0
100
AcDbLine
 62
7
  6
CONTINUOUS
 10
0.871347503
 20
12.821544829
 11
1.8911150483
 21
12.5582173688
  0
LINE
  5
247
100
AcDbEntity
  8
0
100
AcDbLine
 62
7
  6
CONTINUOUS
 10
1.8911150483
 20
12.5582173688
 11
1.9080911708
 21
12.5538307438
  0
LINE
  5
248
100
AcDbEntity
  8
0
100
AcDbLine
 62
7
  6
CONTINUOUS
 10
0.871347503
 20
12.821544829
 11
0.8575955194
 21
12.8252785035
  0
LINE
  5
249
100
AcDbEntity
  8
0
100
AcDbLine
 62
7
  6
CONTINUOUS
 10
9.27384339
 20
12.0795502992
 11
9.2738433451
 21
9.5495543295
  0
LWPOLYLINE
  5
24A
100
AcDbEntity
  8
Defpoints
100
AcDbPolyline
 62
7
  6
CONTINUOUS
 90
5
 70
0
 43
0.3809999849
 10
9.6983470014
 20
0.0
 10
9.6983470014
 20
0.001
 10
9.6985972176
 20
0.0001666667
 10
9.6988474338
 20
0.001
 10
9.6988474338
 20
0.0
  0
LWPOLYLINE
  5
24B
100
AcDbEntity
  8
Defpoints
100
AcDbPolyline
 62
7
  6
CONTINUOUS
 90
5
 70
0
 43
0.3809999849
 10
9.6983470014
 20
0.0050000001
 10
9.6983470014
 20
0.0060000002
 10
9.6985972176
 20
0.0051666669
 10
9.6988474338
 20
0.0060000002
 10
9.6988474338
 20
0.0050000001
  0
LWPOLYLINE
  5
24C
100
AcDbEntity
  8
Defpoints
100
AcDbPolyline
 62
7
  6
CONTINUOUS
 90
9
 70
0
 43
0.3809999849
 10
9.6983977699
 20
0.0016666667
 10
9.6983977699
 20
0.0026666665
 10
9.6986479861
 20
0.0026666665
 10
9.6987471055
 20
0.0025833335
 10
9.698797874
 20
0.0025000001
 10
9.698797874
 20
0.0023333333
 10
9.6987471055
 20
0.0022500001
 10
9.6986479861
 20
0.0021666667
 10
9.6983977699
 20
0.0021666667
  0
LWPOLYLINE
  5
24D
100
AcDbEntity
  8
Defpoints
100
AcDbPolyline
 62
7
  6
CONTINUOUS
 90
2
 70
0
 43
0.3809999849
 10
9.6985972176
 20
0.0043333334
 10
9.6985972176
 20
0.0033333333
  0
LWPOLYLINE
  5
24E
100
AcDbEntity
  8
Defpoints
100
AcDbPolyline
 62
7
  6
CONTINUOUS
 90
9
 70
0
 43
0.3809999849
 10
9.6991979782
 20
0.0016666667
 10
9.6991979782
 20
0.0026666665
 10
9.6994469856
 20
0.0026666665
 10
9.6995473138
 20
0.0025833335
 10
9.6995980823
 20
0.0025000001
 10
9.6995980823
 20
0.0023333333
 10
9.6995473138
 20
0.0022500001
 10
9.6994469856
 20
0.0021666667
 10
9.6991979782
 20
0.0021666667
  0
LWPOLYLINE
  5
24F
100
AcDbEntity
  8
Defpoints
100
AcDbPolyline
 62
7
  6
CONTINUOUS
 90
9
 70
0
 43
0.3809999849
 10
9.6991979782
 20
0.0033333333
 10
9.6991979782
 20
0.0043333334
 10
9.6994469856
 20
0.0043333334
 10
9.6995473138
 20
0.00425
 10
9.6995980823
 20
0.0041666666
 10
9.6995980823
 20
0.0040000001
 10
9.6995473138
 20
0.0039166667
 10
9.6994469856
 20
0.0038333333
 10
9.6991979782
 20
0.0038333333
  0
LWPOLYLINE
  5
250
100
AcDbEntity
  8
Defpoints
100
AcDbPolyline
 62
7
  6
CONTINUOUS
 90
2
 70
0
 43
0.3809999849
 10
9.7001976341
 20
0.001
 10
9.7001976341
 20
0.0
  0
LWPOLYLINE
  5
251
100
AcDbEntity
  8
Defpoints
100
AcDbPolyline
 62
7
  6
CONTINUOUS
 90
9
 70
0
 43
0.3809999849
 10
9.7015973942
 20
0.0
 10
9.7015973942
 20
0.001
 10
9.7018476103
 20
0.001
 10
9.7019479386
 20
0.0009166666
 10
9.7019974983
 20
0.0008333333
 10
9.7019974983
 20
0.0006666666
 10
9.7019479386
 20
0.0005833333
 10
9.7018476103
 20
0.0005
 10
9.7015973942
 20
0.0005
  0
LWPOLYLINE
  5
252
100
AcDbEntity
  8
Defpoints
100
AcDbPolyline
 62
7
  6
CONTINUOUS
 90
3
 70
0
 43
0.3809999849
 10
9.7015973942
 20
0.0060000002
 10
9.7015973942
 20
0.0050000001
 10
9.7019974983
 20
0.0050000001
  0
LWPOLYLINE
  5
253
100
AcDbEntity
  8
Defpoints
100
AcDbPolyline
 62
7
  6
CONTINUOUS
 90
8
 70
0
 43
0.3809999849
 10
9.7019974983
 20
0.0026666665
 10
9.7019974983
 20
0.0018333333
 10
9.7019479386
 20
0.00175
 10
9.7018476103
 20
0.0016666667
 10
9.7017472821
 20
0.0016666667
 10
9.7016469539
 20
0.00175
 10
9.7015973942
 20
0.0018333333
 10
9.7015973942
 20
0.0026666665
  0
LWPOLYLINE
  5
254
100
AcDbEntity
  8
Defpoints
100
AcDbPolyline
 62
7
  6
CONTINUOUS
 90
4
 70
0
 43
0.3809999849
 10
9.7023976024
 20
0.0033333333
 10
9.7023976024
 20
0.0043333334
 10
9.7027977065
 20
0.0033333333
 10
9.7027977065
 20
0.0043333334
  0
LWPOLYLINE
  5
255
100
AcDbEntity
  8
Defpoints
100
AcDbPolyline
 62
7
  6
CONTINUOUS
 90
4
 70
0
 43
0.3809999849
 10
9.7023976024
 20
0.0050000001
 10
9.7023976024
 20
0.0060000002
 10
9.7027977065
 20
0.0050000001
 10
9.7027977065
 20
0.0060000002
  0
LWPOLYLINE
  5
256
100
AcDbEntity
  8
Defpoints
100
AcDbPolyline
 62
7
  6
CONTINUOUS
 90
2
 70
0
 43
0.3809999849
 10
9.7025970501
 20
0.001
 10
9.7025970501
 20
0.0
  0
LWPOLYLINE
  5
257
100
AcDbEntity
  8
Defpoints
100
AcDbPolyline
 62
7
  6
CONTINUOUS
 90
2
 70
0
 43
0.3809999849
 10
9.7033972583
 20
0.0026666665
 10
9.7033972583
 20
0.0016666667
  0
LWPOLYLINE
  5
258
100
AcDbEntity
  8
Defpoints
100
AcDbPolyline
 62
7
  6
CONTINUOUS
 90
8
 70
0
 43
0.3809999849
 10
9.7035979148
 20
0.0060000002
 10
9.7035979148
 20
0.0051666669
 10
9.7035471463
 20
0.0050833335
 10
9.7034480268
 20
0.0050000001
 10
9.7033476986
 20
0.0050000001
 10
9.7032473704
 20
0.0050833335
 10
9.7031978107
 20
0.0051666669
 10
9.7031978107
 20
0.0060000002
  0
LWPOLYLINE
  5
259
100
AcDbEntity
  8
Defpoints
100
AcDbPolyline
 62
7
  6
CONTINUOUS
 90
5
 70
0
 43
0.3809999849
 10
9.7039472504
 20
0.0033333333
 10
9.7039472504
 20
0.0043333334
 10
9.7041974666
 20
0.0035000001
 10
9.7044476828
 20
0.0043333334
 10
9.7044476828
 20
0.0033333333
  0
LWPOLYLINE
  5
25A
100
AcDbEntity
  8
Defpoints
100
AcDbPolyline
 62
7
  6
CONTINUOUS
 90
5
 70
0
 43
0.3809999849
 10
9.7039472504
 20
0.0050000001
 10
9.7039472504
 20
0.0060000002
 10
9.7041974666
 20
0.0051666669
 10
9.7044476828
 20
0.0060000002
 10
9.7044476828
 20
0.0050000001
  0
LWPOLYLINE
  5
25B
100
AcDbEntity
  8
Defpoints
100
AcDbPolyline
 62
7
  6
CONTINUOUS
 90
3
 70
0
 43
0.3809999849
 10
9.7039980189
 20
0.001
 10
9.7039980189
 20
0.0
 10
9.7043969143
 20
0.0
  0
LWPOLYLINE
  5
25C
100
AcDbEntity
  8
Defpoints
100
AcDbPolyline
 62
7
  6
CONTINUOUS
 90
3
 70
0
 43
0.3809999849
 10
9.7047474587
 20
0.0060000002
 10
9.7047474587
 20
0.0050000001
 10
9.7050980031
 20
0.0050000001
  0
LWPOLYLINE
  5
25D
100
AcDbEntity
  8
Defpoints
100
AcDbPolyline
 62
7
  6
CONTINUOUS
 90
9
 70
0
 43
0.3809999849
 10
9.7063974349
 20
0.0050000001
 10
9.7063974349
 20
0.0060000002
 10
9.7066476511
 20
0.0060000002
 10
9.7067479793
 20
0.0059166668
 10
9.706797539
 20
0.0058333334
 10
9.706797539
 20
0.0056666666
 10
9.7067479793
 20
0.0055833332
 10
9.7066476511
 20
0.0054999999
 10
9.7063974349
 20
0.0054999999
  0
LINE
  5
25E
100
AcDbEntity
  8
0
100
AcDbLine
 62
7
  6
CONTINUOUS
 10
9.0678433451
 20
5.5295546236
 11
9.067834056
 21
5.5195361138
  0
LINE
  5
25F
100
AcDbEntity
  8
0
100
AcDbLine
 62
7
  6
CONTINUOUS
 10
8.6640617327
 20
0.6568667843
 11
8.6344939821
 21
0.4160567839
  0
LINE
  5
260
100
AcDbEntity
  8
0
100
AcDbLine
 62
7
  6
CONTINUOUS
 10
10.2118101542
 20
12.0795502992
 11
10.2118433227
 21
9.5495543325
  0
LINE
  5
261
100
AcDbEntity
  8
0
100
AcDbLine
 62
7
  6
CONTINUOUS
 10
10.7416252352
 20
0.6568667843
 11
10.7711929859
 21
0.4160567839
  0
LINE
  5
262
100
AcDbEntity
  8
0
100
AcDbLine
 62
7
  6
CONTINUOUS
 10
10.9446504882
 20
0.1572947345
 11
10.9528433451
 21
0.0095546236
  0
LINE
  5
263
100
AcDbEntity
  8
0
100
AcDbLine
 62
7
  6
CONTINUOUS
 10
10.4142030285
 20
5.5295916433
 11
10.4142216068
 21
5.5195546236
  0
LINE
  5
264
100
AcDbEntity
  8
0
100
AcDbLine
 62
7
  6
CONTINUOUS
 10
10.6928433451
 20
0.7495546236
 11
10.6928433451
 21
0.7095546236
  0
LINE
  5
265
100
AcDbEntity
  8
0
100
AcDbLine
 62
7
  6
CONTINUOUS
 10
10.9528433451
 20
0.0
 11
10.9528433451
 21
16.7100889292
  0
LWPOLYLINE
  5
266
100
AcDbEntity
  8
Defpoints
100
AcDbPolyline
 62
7
  6
CONTINUOUS
 90
3
 70
0
 43
0.3809999849
 10
9.6999474179
 20
0.0033333333
 10
9.7001976341
 20
0.0043333334
 10
9.7004478503
 20
0.0033333333
  0
LWPOLYLINE
  5
267
100
AcDbEntity
  8
Defpoints
100
AcDbPolyline
 62
7
  6
CONTINUOUS
 90
3
 70
0
 43
0.3809999849
 10
9.6991472097
 20
0.0
 10
9.6993974258
 20
0.001
 10
9.699647642
 20
0.0
  0
LWPOLYLINE
  5
268
100
AcDbEntity
  8
Defpoints
100
AcDbPolyline
 62
7
  6
CONTINUOUS
 90
3
 70
0
 43
0.3809999849
 10
9.7031470422
 20
0.0033333333
 10
9.7033972583
 20
0.0043333334
 10
9.7036474745
 20
0.0033333333
  0
LWPOLYLINE
  5
269
100
AcDbEntity
  8
Defpoints
100
AcDbPolyline
 62
7
  6
CONTINUOUS
 90
3
 70
0
 43
0.3809999849
 10
9.7031470422
 20
0.0
 10
9.7033972583
 20
0.001
 10
9.7036474745
 20
0.0
  0
LWPOLYLINE
  5
26A
100
AcDbEntity
  8
Defpoints
100
AcDbPolyline
 62
7
  6
CONTINUOUS
 90
5
 70
0
 43
0.3809999849
 10
9.7003970818
 20
0.0052500003
 10
9.7002979623
 20
0.0050833335
 10
9.7001976341
 20
0.0050000001
 10
9.6999969777
 20
0.0050000001
 10
9.6999969777
 20
0.0060000002
  0
LWPOLYLINE
  5
26B
100
AcDbEntity
  8
Defpoints
100
AcDbPolyline
 62
7
  6
CONTINUOUS
 90
19
 70
0
 43
0.3809999849
 10
9.7003970818
 20
0.0018333333
 10
9.7003475221
 20
0.00175
 10
9.7002471938
 20
0.0016666667
 10
9.7001480744
 20
0.0016666667
 10
9.7000477462
 20
0.00175
 10
9.6999969777
 20
0.0018333333
 10
9.6999474179
 20
0.0019166667
 10
9.6998978582
 20
0.0021666667
 10
9.6999474179
 20
0.0024166667
 10
9.6999969777
 20
0.0025000001
 10
9.7000477462
 20
0.0025833335
 10
9.7001480744
 20
0.0026666665
 10
9.7002471938
 20
0.0026666665
 10
9.7003475221
 20
0.0025833335
 10
9.7003970818
 20
0.0025000001
 10
9.7004478503
 20
0.0024166667
 10
9.70049741
 20
0.0021666667
 10
9.7004478503
 20
0.0019166667
 10
9.7003970818
 20
0.0018333333
  0
LWPOLYLINE
  5
26C
100
AcDbEntity
  8
Defpoints
100
AcDbPolyline
 62
7
  6
CONTINUOUS
 90
6
 70
0
 43
0.3809999849
 10
9.7023480427
 20
0.0024166667
 10
9.7024471621
 20
0.0025833335
 10
9.7025474904
 20
0.0026666665
 10
9.7026478186
 20
0.0026666665
 10
9.702746938
 20
0.0025833335
 10
9.7027977065
 20
0.0025000001
  0
LWPOLYLINE
  5
26D
100
AcDbEntity
  8
Defpoints
100
AcDbPolyline
 62
7
  6
CONTINUOUS
 90
3
 70
0
 43
0.3809999849
 10
9.7050980031
 20
0.0050000001
 10
9.7051971225
 20
0.0051666669
 10
9.7051971225
 20
0.0054166665
  0
LWPOLYLINE
  5
26E
100
AcDbEntity
  8
Defpoints
100
AcDbPolyline
 62
7
  6
CONTINUOUS
 90
19
 70
0
 43
0.3809999849
 10
9.6995980823
 20
0.0051666669
 10
9.6995473138
 20
0.0050833335
 10
9.6994469856
 20
0.0050000001
 10
9.6993478661
 20
0.0050000001
 10
9.6992475379
 20
0.0050833335
 10
9.6991979782
 20
0.0051666669
 10
9.6991472097
 20
0.0052500003
 10
9.6990976499
 20
0.0054999999
 10
9.6991472097
 20
0.00575
 10
9.6991979782
 20
0.0058333334
 10
9.6992475379
 20
0.0059166668
 10
9.6993478661
 20
0.0060000002
 10
9.6994469856
 20
0.0060000002
 10
9.6995473138
 20
0.0059166668
 10
9.6995980823
 20
0.0058333334
 10
9.699647642
 20
0.00575
 10
9.6996972018
 20
0.0054999999
 10
9.699647642
 20
0.0052500003
 10
9.6995980823
 20
0.0051666669
  0
LWPOLYLINE
  5
26F
100
AcDbEntity
  8
Defpoints
100
AcDbPolyline
 62
7
  6
CONTINUOUS
 90
9
 70
0
 43
0.3809999849
 10
9.7027977065
 20
0.0018333333
 10
9.702746938
 20
0.00175
 10
9.7026478186
 20
0.0016666667
 10
9.7025474904
 20
0.0016666667
 10
9.7024471621
 20
0.00175
 10
9.7023976024
 20
0.0018333333
 10
9.7023480427
 20
0.0019166667
 10
9.7022972742
 20
0.0021666667
 10
9.7023480427
 20
0.0024166667
  0
LINE
  5
270
100
AcDbEntity
  8
0
100
AcDbLine
 62
7
  6
CONTINUOUS
 10
8.5527340871
 20
0.2820858706
 11
8.514910054
 21
0.2556216696
  0
LINE
  5
271
100
AcDbEntity
  8
0
100
AcDbLine
 62
7
  6
CONTINUOUS
 10
0.0
 20
16.7100889292
 11
10.9528433451
 21
16.7100889292
  0
ARC
  5
272
100
AcDbEntity
  8
0
100
AcDbCircle
 62
7
  6
CONTINUOUS
 10
-83.5152961436
 20
-2.1293833187
 40
94.2642471771
100
AcDbArc
 50
1.7864701768
 51
4.6321470889
  0
ARC
  5
273
100
AcDbEntity
  8
0
100
AcDbCircle
 62
7
  6
CONTINUOUS
 10
-48.1197802702
 20
10.793072178
 40
57.4070933626
100
AcDbArc
 50
354.78075618
 51
358.7587962866
  0
ARC
  5
274
100
AcDbEntity
  8
0
100
AcDbCircle
 62
7
  6
CONTINUOUS
 10
8.4459106128
 20
0.4392119105
 40
0.1899995975
100
AcDbArc
 50
304.2101580497
 51
352.9999998858
  0
ARC
  5
275
100
AcDbEntity
  8
0
100
AcDbCircle
 62
7
  6
CONTINUOUS
 10
8.592028856
 20
0.149445884
 40
0.1312273107
100
AcDbArc
 50
125.9920799765
 51
176.5710291582
  0
ARC
  5
276
100
AcDbEntity
  8
0
100
AcDbCircle
 62
7
  6
CONTINUOUS
 10
8.7236145019
 20
0.6495546236
 40
0.06
100
AcDbArc
 50
90.0000000095
 51
172.9999998858
  0
ARC
  5
277
100
AcDbEntity
  8
0
100
AcDbCircle
 62
7
  6
CONTINUOUS
 10
8.7428911418
 20
0.8095572013
 40
0.0400048587
100
AcDbArc
 50
180.0700427286
 51
269.407468449
  0
ARC
  5
278
100
AcDbEntity
  8
0
100
AcDbCircle
 62
7
  6
CONTINUOUS
 10
8.7328436228
 20
0.7495546236
 40
0.02
100
AcDbArc
 50
90.0
 51
180.0
  0
ARC
  5
279
100
AcDbEntity
  8
0
100
AcDbCircle
 62
7
  6
CONTINUOUS
 10
2.2480103056
 20
4.5283643033
 40
7.2705462996
100
AcDbArc
 50
3.2744296462
 51
8.5250385695
  0
ARC
  5
27A
100
AcDbEntity
  8
0
100
AcDbCircle
 62
7
  6
CONTINUOUS
 10
6.3539827193
 20
4.6873991324
 40
3.1631006418
100
AcDbArc
 50
357.0304483871
 51
4.6467119787
  0
ARC
  5
27B
100
AcDbEntity
  8
0
100
AcDbCircle
 62
7
  6
CONTINUOUS
 10
9.7010863363
 20
4.4140574861
 40
1.7939753146
100
AcDbArc
 50
271.3332215997
 51
273.6813009534
  0
ARC
  5
27C
100
AcDbEntity
  8
0
100
AcDbCircle
 62
7
  6
CONTINUOUS
 10
9.62111976
 20
4.4140574861
 40
1.7939753146
100
AcDbArc
 50
271.3332215997
 51
272.6109865908
  0
ARC
  5
27D
100
AcDbEntity
  8
0
100
AcDbCircle
 62
7
  6
CONTINUOUS
 10
8.4399680608
 20
4.5525958878
 40
1.073261454
100
AcDbArc
 50
336.8576960749
 51
358.4483440452
  0
ARC
  5
27E
100
AcDbEntity
  8
0
100
AcDbCircle
 62
7
  6
CONTINUOUS
 10
9.4951509124
 20
3.2475857538
 40
1.008767749
100
AcDbArc
 50
311.8732755764
 51
61.4113996251
  0
ARC
  5
27F
100
AcDbEntity
  8
0
100
AcDbCircle
 62
7
  6
CONTINUOUS
 10
9.6816969438
 20
3.3369081998
 40
0.762587706
100
AcDbArc
 50
271.5890143878
 51
338.2154604772
  0
ARC
  5
280
100
AcDbEntity
  8
0
100
AcDbCircle
 62
7
  6
CONTINUOUS
 10
9.6185191064
 20
3.3165060038
 40
0.7415014453
100
AcDbArc
 50
320.0543780293
 51
38.634337656
  0
ARC
  5
281
100
AcDbEntity
  8
0
100
AcDbCircle
 62
7
  6
CONTINUOUS
 10
9.7008010408
 20
3.0705823214
 40
0.7405253385
100
AcDbArc
 50
270.0071211921
 51
309.1654449063
  0
ARC
  5
282
100
AcDbEntity
  8
0
100
AcDbCircle
 62
7
  6
CONTINUOUS
 10
9.6672130784
 20
3.3142752659
 40
0.701465958
100
AcDbArc
 50
122.635417503
 51
201.7889731339
  0
ARC
  5
283
100
AcDbEntity
  8
0
100
AcDbCircle
 62
7
  6
CONTINUOUS
 10
9.6994920759
 20
3.3026429284
 40
0.6717967334
100
AcDbArc
 50
270.2858339795
 51
316.5245451672
  0
ARC
  5
284
100
AcDbEntity
  8
0
100
AcDbCircle
 62
7
  6
CONTINUOUS
 10
9.6968714157
 20
2.9641674824
 40
0.364718966
100
AcDbArc
 50
252.3384778855
 51
270.9382281548
  0
ARC
  5
285
100
AcDbEntity
  8
0
100
AcDbCircle
 62
7
  6
CONTINUOUS
 10
9.5877322406
 20
2.5976206721
 40
0.0262172357
100
AcDbArc
 50
86.318764202
 51
103.4235273591
  0
ARC
  5
286
100
AcDbEntity
  8
0
100
AcDbCircle
 62
7
  6
CONTINUOUS
 10
9.5925524179
 20
2.6352015786
 40
0.0196132098
100
AcDbArc
 50
227.3371389122
 51
251.1580320955
  0
ARC
  5
287
100
AcDbEntity
  8
0
100
AcDbCircle
 62
7
  6
CONTINUOUS
 10
9.5835559623
 20
2.6146445156
 40
0.008689659
100
AcDbArc
 50
102.6972595058
 51
116.3920931425
  0
ARC
  5
288
100
AcDbEntity
  8
0
100
AcDbCircle
 62
7
  6
CONTINUOUS
 10
9.5800878624
 20
2.6214435879
 40
0.0010609818
100
AcDbArc
 50
111.8313827494
 51
218.7893868511
  0
ARC
  5
289
100
AcDbEntity
  8
0
100
AcDbCircle
 62
7
  6
CONTINUOUS
 10
10.9597763552
 20
0.4392119105
 40
0.1899995975
100
AcDbArc
 50
187.0000001142
 51
235.7898419503
  0
ARC
  5
28A
100
AcDbEntity
  8
0
100
AcDbCircle
 62
7
  6
CONTINUOUS
 10
10.813658112
 20
0.149445884
 40
0.1312273107
100
AcDbArc
 50
3.4289708418
 51
54.0079200235
  0
ARC
  5
28B
100
AcDbEntity
  8
0
100
AcDbCircle
 62
7
  6
CONTINUOUS
 10
10.6820724661
 20
0.6495546236
 40
0.06
100
AcDbArc
 50
7.0000001142
 51
89.9999999905
  0
ARC
  5
28C
100
AcDbEntity
  8
0
100
AcDbCircle
 62
7
  6
CONTINUOUS
 10
10.6646040254
 20
0.8080778425
 40
0.0385485917
100
AcDbArc
 50
267.9268788012
 51
1.7864701768
  0
ARC
  5
28D
100
AcDbEntity
  8
0
100
AcDbCircle
 62
7
  6
CONTINUOUS
 10
10.6728433451
 20
0.7495546236
 40
0.02
100
AcDbArc
 50
0.0
 51
90.0
  0
ARC
  5
28E
100
AcDbEntity
  8
0
100
AcDbCircle
 62
7
  6
CONTINUOUS
 10
17.1576766624
 20
4.5283643033
 40
7.2705462996
100
AcDbArc
 50
171.4749614305
 51
176.7255703538
  0
ARC
  5
28F
100
AcDbEntity
  8
0
100
AcDbCircle
 62
7
  6
CONTINUOUS
 10
12.5688126235
 20
3.2102263188
 40
3.8456104233
100
AcDbArc
 50
166.9319474367
 51
180.2726075375
  0
ARC
  5
290
100
AcDbEntity
  8
0
100
AcDbCircle
 62
7
  6
CONTINUOUS
 10
13.0517042487
 20
4.6873991324
 40
3.1631006418
100
AcDbArc
 50
175.3532880213
 51
182.9695516129
  0
ARC
  5
291
100
AcDbEntity
  8
0
100
AcDbCircle
 62
7
  6
CONTINUOUS
 10
9.784567208
 20
4.4140574861
 40
1.7939753146
100
AcDbArc
 50
267.3890134092
 51
268.6667784003
  0
ARC
  5
292
100
AcDbEntity
  8
0
100
AcDbCircle
 62
7
  6
CONTINUOUS
 10
9.7046006317
 20
4.4140574861
 40
1.7939753146
100
AcDbArc
 50
266.3186990466
 51
268.6667784003
  0
ARC
  5
293
100
AcDbEntity
  8
0
100
AcDbCircle
 62
7
  6
CONTINUOUS
 10
10.9657189072
 20
4.5525958878
 40
1.073261454
100
AcDbArc
 50
181.5516559548
 51
203.1423039251
  0
ARC
  5
294
100
AcDbEntity
  8
0
100
AcDbCircle
 62
7
  6
CONTINUOUS
 10
9.9105360556
 20
3.2475857538
 40
1.008767749
100
AcDbArc
 50
118.5886003749
 51
228.1267244236
  0
ARC
  5
295
100
AcDbEntity
  8
0
100
AcDbCircle
 62
7
  6
CONTINUOUS
 10
9.7239900242
 20
3.3369081998
 40
0.762587706
100
AcDbArc
 50
201.7845395228
 51
268.4109856122
  0
ARC
  5
296
100
AcDbEntity
  8
0
100
AcDbCircle
 62
7
  6
CONTINUOUS
 10
9.7871678616
 20
3.3165060038
 40
0.7415014453
100
AcDbArc
 50
141.365662344
 51
219.9456219707
  0
ARC
  5
297
100
AcDbEntity
  8
0
100
AcDbCircle
 62
7
  6
CONTINUOUS
 10
9.7049330592
 20
3.0706657924
 40
0.7406198227
100
AcDbArc
 50
230.8358063832
 51
269.687457805
  0
ARC
  5
298
100
AcDbEntity
  8
0
100
AcDbCircle
 62
7
  6
CONTINUOUS
 10
9.7384738896
 20
3.3142752659
 40
0.701465958
100
AcDbArc
 50
338.2110268661
 51
57.364582497
  0
ARC
  5
299
100
AcDbEntity
  8
0
100
AcDbCircle
 62
7
  6
CONTINUOUS
 10
9.7061948921
 20
3.3026429284
 40
0.6717967334
100
AcDbArc
 50
223.4754548328
 51
269.7141660205
  0
ARC
  5
29A
100
AcDbEntity
  8
0
100
AcDbCircle
 62
7
  6
CONTINUOUS
 10
9.7088155523
 20
2.9641674824
 40
0.364718966
100
AcDbArc
 50
269.0617718452
 51
287.6615221145
  0
ARC
  5
29B
100
AcDbEntity
  8
0
100
AcDbCircle
 62
7
  6
CONTINUOUS
 10
9.8179547274
 20
2.5976206721
 40
0.0262172357
100
AcDbArc
 50
76.5764726409
 51
93.681235798
  0
ARC
  5
29C
100
AcDbEntity
  8
0
100
AcDbCircle
 62
7
  6
CONTINUOUS
 10
9.8131345501
 20
2.6352015786
 40
0.0196132098
100
AcDbArc
 50
288.8419679045
 51
312.6628610878
  0
ARC
  5
29D
100
AcDbEntity
  8
0
100
AcDbCircle
 62
7
  6
CONTINUOUS
 10
9.8221310057
 20
2.6146445156
 40
0.008689659
100
AcDbArc
 50
63.6079068575
 51
77.3027404942
  0
ARC
  5
29E
100
AcDbEntity
  8
0
100
AcDbCircle
 62
7
  6
CONTINUOUS
 10
9.8255991056
 20
2.6214435879
 40
0.0010609818
100
AcDbArc
 50
321.2106131489
 51
68.1686172506
  0
ARC
  5
29F
100
AcDbEntity
  8
0
100
AcDbCircle
 62
7
  6
CONTINUOUS
 10
-1.0102463444
 20
6.3621918228
 40
10.0944659392
100
AcDbArc
 50
346.9319474367
 51
354.9972119063
  0
ARC
  5
2A0
100
AcDbEntity
  8
0
100
AcDbCircle
 62
7
  6
CONTINUOUS
 10
12.5351582819
 20
5.4798288988
 40
2.8904626393
100
AcDbArc
 50
207.8217148995
 51
216.0342302267
  0
ARC
  5
2A1
100
AcDbEntity
  8
0
100
AcDbCircle
 62
7
  6
CONTINUOUS
 10
6.8705286861
 20
5.4798288988
 40
2.8904626393
100
AcDbArc
 50
323.9657697733
 51
332.1782851005
  0
ARC
  5
2A2
100
AcDbEntity
  8
0
100
AcDbCircle
 62
7
  6
CONTINUOUS
 10
8.3689537417
 20
5.845774506
 40
1.6163665625
100
AcDbArc
 50
351.4749614305
 51
7.1182287542
  0
ARC
  5
2A3
100
AcDbEntity
  8
0
100
AcDbCircle
 62
7
  6
CONTINUOUS
 10
11.0367332263
 20
5.845774506
 40
1.6163665625
100
AcDbArc
 50
172.8817712458
 51
188.5250385695
  0
ARC
  5
2A4
100
AcDbEntity
  8
0
100
AcDbCircle
 62
7
  6
CONTINUOUS
 10
9.6975732237
 20
6.0168388746
 40
0.2768366284
100
AcDbArc
 50
6.0611688552
 51
52.218660398
  0
ARC
  5
2A5
100
AcDbEntity
  8
0
100
AcDbCircle
 62
7
  6
CONTINUOUS
 10
9.7081137443
 20
6.0168388746
 40
0.2768366284
100
AcDbArc
 50
127.781339602
 51
173.9388311448
  0
ARC
  5
2A6
100
AcDbEntity
  8
0
100
AcDbCircle
 62
7
  6
CONTINUOUS
 10
9.7177057744
 20
6.0123716186
 40
0.2686811137
100
AcDbArc
 50
56.1986667598
 51
93.1709760583
  0
ARC
  5
2A7
100
AcDbEntity
  8
0
100
AcDbCircle
 62
7
  6
CONTINUOUS
 10
9.6879811936
 20
6.0123716186
 40
0.2686811137
100
AcDbArc
 50
86.8290239417
 51
123.8013332402
  0
ARC
  5
2A8
100
AcDbEntity
  8
0
100
AcDbCircle
 62
7
  6
CONTINUOUS
 10
10.4012266738
 20
5.4795547135
 40
0.0400001087
100
AcDbArc
 50
5.2653133292
 51
89.8194853458
  0
ARC
  5
2A9
100
AcDbEntity
  8
0
100
AcDbCircle
 62
7
  6
CONTINUOUS
 10
9.0853879608
 20
5.4795544381
 40
0.0400000076
100
AcDbArc
 50
90.1265396784
 51
176.6220282053
  0
ARC
  5
2AA
100
AcDbEntity
  8
0
100
AcDbCircle
 62
7
  6
CONTINUOUS
 10
9.0883253884
 20
5.5290689078
 40
0.0204878016
100
AcDbArc
 50
90.8175915486
 51
178.6415295949
  0
ARC
  5
2AB
100
AcDbEntity
  8
0
100
AcDbCircle
 62
7
  6
CONTINUOUS
 10
9.069740403
 20
5.5700115956
 40
0.0204628216
100
AcDbArc
 50
177.46229136
 51
268.6299770421
  0
ARC
  5
2AC
100
AcDbEntity
  8
0
100
AcDbCircle
 62
7
  6
CONTINUOUS
 10
10.3940506105
 20
5.5294018939
 40
0.0201533113
100
AcDbArc
 50
0.5394646664
 51
89.5647037457
  0
ARC
  5
2AD
100
AcDbEntity
  8
0
100
AcDbCircle
 62
7
  6
CONTINUOUS
 10
10.4164355394
 20
5.5695546236
 40
0.02
100
AcDbArc
 50
269.9999891138
 51
3.2302438685
  0
ARC
  5
2AE
100
AcDbEntity
  8
0
100
AcDbCircle
 62
7
  6
CONTINUOUS
 10
11.6908917293
 20
10.4837968985
 40
9.98170988
100
AcDbArc
 50
173.297349923
 51
175.1317184269
  0
ARC
  5
2AF
100
AcDbEntity
  8
0
100
AcDbCircle
 62
7
  6
CONTINUOUS
 10
-4.9000522744
 20
11.3061842073
 40
6.6780337475
100
AcDbArc
 50
345.1562245814
 51
349.4951018556
  0
ARC
  5
2B0
100
AcDbEntity
  8
0
100
AcDbCircle
 62
7
  6
CONTINUOUS
 10
5.4940182529
 20
11.9914749709
 40
4.7186139583
100
AcDbArc
 50
1.0695169619
 51
164.2975791629
  0
ARC
  5
2B1
100
AcDbEntity
  8
0
100
AcDbCircle
 62
7
  6
CONTINUOUS
 10
-2.6798509937
 20
10.7984028066
 40
4.3357010202
100
AcDbArc
 50
355.0415301471
 51
0.4740765434
  0
ARC
  5
2B2
100
AcDbEntity
  8
0
100
AcDbCircle
 62
7
  6
CONTINUOUS
 10
5.610782135
 20
12.1628217158
 40
3.6640076265
100
AcDbArc
 50
358.6977342767
 51
166.9990295621
  0
ARC
  5
2B3
100
AcDbEntity
  8
0
100
AcDbCircle
 62
7
  6
CONTINUOUS
 10
3.1716267722
 20
10.4161400333
 40
1.5394508652
100
AcDbArc
 50
188.2112993202
 51
192.0838236678
  0
ARC
  5
2B4
100
AcDbEntity
  8
0
100
AcDbCircle
 62
7
  6
CONTINUOUS
 10
2.7690000184
 20
10.3580395784
 40
1.1326536605
100
AcDbArc
 50
181.548529308
 51
188.2112993202
  0
ARC
  5
2B5
100
AcDbEntity
  8
0
100
AcDbCircle
 62
7
  6
CONTINUOUS
 10
2.4845336458
 20
10.3503494518
 40
0.8480833613
100
AcDbArc
 50
175.0415301471
 51
181.548529308
  0
ARC
  5
2B6
100
AcDbEntity
  8
0
100
AcDbCircle
 62
7
  6
CONTINUOUS
 10
2.3195135803
 20
10.2190991737
 40
0.6319910773
100
AcDbArc
 50
177.0578989513
 51
182.281536467
  0
ARC
  5
2B7
100
AcDbEntity
  8
0
100
AcDbCircle
 62
7
  6
CONTINUOUS
 10
2.2798859716
 20
11.8900893449
 40
0.5544794682
100
AcDbArc
 50
138.0542722001
 51
204.8067648427
  0
ARC
  5
2B8
100
AcDbEntity
  8
0
100
AcDbCircle
 62
7
  6
CONTINUOUS
 10
2.1465023241
 20
11.0413813312
 40
0.4900469188
100
AcDbArc
 50
150.0346549218
 51
182.1214056001
  0
ARC
  5
2B9
100
AcDbEntity
  8
0
100
AcDbCircle
 62
7
  6
CONTINUOUS
 10
2.0637934818
 20
10.2355374132
 40
0.3757787322
100
AcDbArc
 50
164.3555208704
 51
177.5597340103
  0
ARC
  5
2BA
100
AcDbEntity
  8
0
100
AcDbCircle
 62
7
  6
CONTINUOUS
 10
1.8364420044
 20
10.656080543
 40
0.0590551186
100
AcDbArc
 50
165.4877019301
 51
188.8124883348
  0
ARC
  5
2BB
100
AcDbEntity
  8
0
100
AcDbCircle
 62
7
  6
CONTINUOUS
 10
1.7251928806
 20
10.6028022793
 40
0.0590430062
100
AcDbArc
 50
343.6979515521
 51
8.8124883348
  0
ARC
  5
2BC
100
AcDbEntity
  8
0
100
AcDbCircle
 62
7
  6
CONTINUOUS
 10
0.0401613476
 20
9.9884413961
 40
0.0409982057
100
AcDbArc
 50
228.6619466176
 51
254.9575908872
  0
ARC
  5
2BD
100
AcDbEntity
  8
0
100
AcDbCircle
 62
7
  6
CONTINUOUS
 10
1.6484515128
 20
10.1878063512
 40
0.0400444801
100
AcDbArc
 50
280.3542211961
 51
8.8103456733
  0
ARC
  5
2BE
100
AcDbEntity
  8
0
100
AcDbCircle
 62
7
  6
CONTINUOUS
 10
0.8652280167
 20
12.7824918768
 40
0.0395294977
100
AcDbArc
 50
81.0943333296
 51
163.3380662032
  0
ARC
  5
2BF
100
AcDbEntity
  8
0
100
AcDbCircle
 62
7
  6
CONTINUOUS
 10
1.8803294381
 20
12.5202201608
 40
0.0394983189
100
AcDbArc
 50
347.3833387041
 51
74.1532633886
  0
ARC
  5
2C0
100
AcDbEntity
  8
0
100
AcDbCircle
 62
7
  6
CONTINUOUS
 10
1.5168892884
 20
9.6052960481
 40
0.0394983121
100
AcDbArc
 50
261.0823518491
 51
345.4549474111
  0
ARC
  5
2C1
100
AcDbEntity
  8
0
100
AcDbCircle
 62
7
  6
CONTINUOUS
 10
1.8760270875
 20
11.2020696267
 40
0.0394410794
100
AcDbArc
 50
345.5951174121
 51
74.2700693898
  0
ARC
  5
2C2
100
AcDbEntity
  8
0
100
AcDbCircle
 62
7
  6
CONTINUOUS
 10
0.0393660986
 20
9.9869648062
 40
0.0393660986
100
AcDbArc
 50
163.5448744587
 51
228.111490471
  0
ARC
  5
2C3
100
AcDbEntity
  8
0
100
AcDbCircle
 62
7
  6
CONTINUOUS
 10
1.9636605458
 20
12.175535818
 40
0.0295275591
100
AcDbArc
 50
345.511702005
 51
75.5117019431
  0
ARC
  5
2C4
100
AcDbEntity
  8
0
100
AcDbCircle
 62
7
  6
CONTINUOUS
 10
1.8405393514
 20
11.6990600517
 40
0.0295275591
100
AcDbArc
 50
255.5117019875
 51
345.5117019344
  0
ARC
  5
2C5
100
AcDbEntity
  8
0
100
AcDbCircle
 62
7
  6
CONTINUOUS
 10
1.7235485121
 20
11.3328262915
 40
0.0217287786
100
AcDbArc
 50
335.7325841188
 51
354.9089935999
  0
ARC
  5
2C6
100
AcDbEntity
  8
0
100
AcDbCircle
 62
7
  6
CONTINUOUS
 10
0.8625994778
 20
12.8446422965
 40
0.0199999019
100
AcDbArc
 50
165.5115846194
 51
255.5107031762
  0
ARC
  5
2C7
100
AcDbEntity
  8
0
100
AcDbCircle
 62
7
  6
CONTINUOUS
 10
1.9130947044
 20
12.5731942865
 40
0.0199995533
100
AcDbArc
 50
255.5117019363
 51
345.5128176237
  0
ARC
  5
2C8
100
AcDbEntity
  8
0
100
AcDbCircle
 62
7
  6
CONTINUOUS
 10
1.7578805658
 20
11.6512910888
 40
0.019678312
100
AcDbArc
 50
352.812687637
 51
18.2460933913
  0
ARC
  5
2C9
100
AcDbEntity
  8
0
100
AcDbCircle
 62
7
  6
CONTINUOUS
 10
1.8524421521
 20
12.2734108234
 40
0.0196755741
100
AcDbArc
 50
319.8265867405
 51
350.2289235933
  0
ARC
  5
2CA
100
AcDbEntity
  8
0
100
AcDbCircle
 62
7
  6
CONTINUOUS
 10
1.6474698311
 20
10.0920937376
 40
0.0189000658
100
AcDbArc
 50
349.4951018556
 51
5.385245738
  0
ARC
  5
2CB
100
AcDbEntity
  8
0
100
AcDbCircle
 62
7
  6
CONTINUOUS
 10
0.3718968457
 20
9.7607533116
 40
0.0098425197
100
AcDbArc
 50
166.4057353829
 51
255.5062295805
  0
ARC
  5
2CC
100
AcDbEntity
  8
0
100
AcDbCircle
 62
7
  6
CONTINUOUS
 10
1.1152884312
 20
9.5685325651
 40
0.0097188213
100
AcDbArc
 50
254.7777363504
 51
346.2456671973
  0
ARC
  5
2CD
100
AcDbEntity
  8
0
100
AcDbCircle
 62
7
  6
CONTINUOUS
 10
65.923008968
 20
10.6980190076
 40
55.7230019486
100
AcDbArc
 50
181.1809636234
 51
185.2795241137
  0
ARC
  5
2CE
100
AcDbEntity
  8
0
100
AcDbCircle
 62
7
  6
CONTINUOUS
 10
1812.6185212012
 20
-455.2077281717
 40
1871.2582373801
100
AcDbArc
 50
165.5015620436
 51
165.5148091457
  0
ENDSEC
  0
SECTION
  2
OBJECTS
  0
DICTIONARY
  5
C
100
AcDbDictionary
280
0
281
1
  3
ACAD_GROUP
350
D
  3
ACAD_MLINESTYLE
350
17
  3
ACAD_LAYOUT
350
1A
  3
ACAD_PLOTSETTINGS
350
19
  3
ACAD_PLOTSTYLENAME
350
E
  0
DICTIONARY
  5
D
102
{ACAD_REACTORS
330
C
102
}
100
AcDbDictionary
280
0
281
1
  0
ACDBDICTIONARYWDFLT
  5
E
102
{ACAD_REACTORS
330
C
102
}
100
AcDbDictionary
281
1
  3
Normal
350
F
100
AcDbDictionaryWithDefault
340
F
  0
DICTIONARY
  5
17
102
{ACAD_REACTORS
330
C
102
}
100
AcDbDictionary
280
0
281
1
  3
Standard
350
18
  0
DICTIONARY
  5
19
102
{ACAD_REACTORS
330
C
102
}
100
AcDbDictionary
281
1
  0
DICTIONARY
  5
1A
102
{ACAD_REACTORS
330
C
102
}
100
AcDbDictionary
281
1
  3
Model
350
2CF
  3
Layout1
350
2D0
  0
ACDBPLACEHOLDER
  5
F
102
{ACAD_REACTORS
330
E
102
}
  0
MLINESTYLE
  5
18
102
{ACAD_REACTORS
330
17
102
}
100
AcDbMlineStyle
  2
STANDARD
 70
0
  3

 62
256
 51
90.0
 52
90.0
 71
2
 49
0.5
 62
256
  6
BYLAYER
 49
-0.5
 62
256
  6
BYLAYER
  0
LAYOUT
  5
2CF
102
{ACAD_REACTORS
330
1A
102
}
100
AcDbPlotSettings
  1

  2
none_device
  4

  6

 40
0.0
 41
0.0
 42
0.0
 43
0.0
 44
278.2022209668
 45
424.4362588013
 46
0.0
 47
0.0
 48
0.0
 49
0.0
140
0.0
141
0.0
142
1.0
143
1.0
 70
1024
 72
0
 73
0
 74
0
  7

 75
0
147
1.0
148
0.0
149
0.0
100
AcDbLayout
  1
Model
 70
0
 71
0
 10
0.0
 20
0.0
 11
10.9528433451
 21
16.7100889292
 12
0.0
 22
0.0
 32
0.0
 14
0.0
 24
0.0
 34
0.0
 15
0.0
 25
0.0
 35
0.0
146
0.0
 13
0.0
 23
0.0
 33
0.0
 16
1.0
 26
0.0
 36
0.0
 17
0.0
 27
1.0
 37
0.0
 76
0
330
201
345
0
346
0
  0
LAYOUT
  5
2D0
102
{ACAD_REACTORS
330
1A
102
}
100
AcDbPlotSettings
  1

  2
none_device
  4

  6

 40
0.0
 41
0.0
 42
0.0
 43
0.0
 44
278.2022209668
 45
424.4362588013
 46
0.0
 47
0.0
 48
0.0
 49
0.0
140
0.0
141
0.0
142
1.0
143
1.0
 70
0
 72
0
 73
0
 74
0
  7

 75
0
147
1.0
148
0.0
149
0.0
100
AcDbLayout
  1
Layout1
 70
0
 71
1
 10
0.0
 20
0.0
 11
10.9528433451
 21
16.7100889292
 12
0.0
 22
0.0
 32
0.0
 14
0.0
 24
0.0
 34
0.0
 15
0.0
 25
0.0
 35
0.0
146
0.0
 13
0.0
 23
0.0
 33
0.0
 16
1.0
 26
0.0
 36
0.0
 17
0.0
 27
1.0
 37
0.0
 76
0
330
202
345
0
346
0
  0
ENDSEC
  0
EOF
