999
DXF file: 22036frt.dxf
999
Pro/ENGINEER 2020454 by Parametric Technology Corporation
  0
SECTION
  2
HEADER
  9
$ACADVER
  1
AC1032
  9
$DWGCODEPAGE
  3
ANSI_936
  9
$EXTMAX
 10
10.5017491704
 20
16.7097853071
 30
0.0
  9
$EXTMIN
 10
0.0
 20
0.0
 30
0.0
  9
$LIMMIN
 10
0.0
 20
0.0
  9
$LIMMAX
 10
10.5017491704
 20
16.7097853071
  9
$VIEWCTR
 10
5.2508745852
 20
8.3548926535
  9
$VIEWSIZE
 40
16.7097853071
  9
$CLAYER
  8
0
  9
$LTSCALE
 40
1.0892304496
  9
$CELTYPE
  6
BYLAYER
  9
$DIMSCALE
 40
1.0
  9
$DIMASZ
 40
4.7625
  9
$DIMEXO
 40
1.0
  9
$DIMDLI
 40
0.7525592198
  9
$DIMEXE
 40
1.5
  9
$DIMCEN
 40
0.1782377099
  9
$DIMLFAC
 40
1.0
  9
$DIMBLK
  1
_FILLED
  9
$DIMALT
 70
0
  9
$DIMALTF
 40
25.4
  9
$DIMTXT
 40
3.96875
  9
$DIMTOL
 70
1
  9
$DIMLIM
 70
0
  9
$DIMTFAC
 40
1.0
  9
$DIMTP
 40
0.01
  9
$DIMTM
 40
0.01
  9
$DIMGAP
 40
0.09
  9
$DIMDSEP
 70
46
  9
$AUNITS
 70
0
  9
$PDMODE
 70
3
  9
$PDSIZE
 40
7.9375
  9
$HANDSEED
  5
2BF
  9
$TILEMODE
 70
1
  9
$MEASUREMENT
 70
0
  9
$INSUNITS
 70
1
  0
ENDSEC
  0
SECTION
  2
CLASSES
  0
CLASS
  1
ACDBDICTIONARYWDFLT
  2
AcDbDictionaryWithDefault
  3
AutoCAD 2000
 90
0
 91
1
280
0
281
0
  0
CLASS
  1
ACDBPLACEHOLDER
  2
AcDbPlaceHolder
  3
AutoCAD 2000
 90
0
 91
1
280
0
281
0
  0
CLASS
  1
LAYOUT
  2
AcDbLayout
  3
AutoCAD 2000
 90
0
 91
0
280
0
281
0
  0
ENDSEC
  0
SECTION
  2
TABLES
  0
TABLE
  2
VPORT
  5
8
100
AcDbSymbolTable
 70
2
  0
VPORT
  5
1F4
100
AcDbSymbolTableRecord
100
AcDbViewportTableRecord
  2
*ACTIVE
 70
0
 10
0.0
 20
0.0
 11
1.0
 21
1.0
 12
5.2508745852
 22
8.3548926535
 13
0.0
 23
0.0
 14
1.0
 24
1.0
 15
0.0
 25
0.0
 16
0.0
 26
0.0
 36
1.0
 17
0.0
 27
0.0
 37
0.0
 40
16.7097853071
 41
0.6284790006
 42
50.0
 43
0.0
 44
0.0
 50
0.0
 51
0.0
 71
0
 72
100
 73
1
 74
1
 75
0
 76
0
 77
0
 78
0
  0
ENDTAB
  0
TABLE
  2
LTYPE
  5
5
100
AcDbSymbolTable
 70
6
  0
LTYPE
  5
14
100
AcDbSymbolTableRecord
100
AcDbLinetypeTableRecord
  2
BYBLOCK
 70
0
  3

 72
65
 73
0
 40
0.0
  0
LTYPE
  5
15
100
AcDbSymbolTableRecord
100
AcDbLinetypeTableRecord
  2
BYLAYER
 70
0
  3

 72
65
 73
0
 40
0.0
  0
LTYPE
  5
16
100
AcDbSymbolTableRecord
100
AcDbLinetypeTableRecord
  2
CONTINUOUS
 70
64
  3
Solid line
 72
65
 73
0
 40
0.0
  0
LTYPE
  5
1F5
100
AcDbSymbolTableRecord
100
AcDbLinetypeTableRecord
  2
CENTER
 70
64
  3
____ _ ____ _ ____ _ ____ _ ____ _ ____ _ ____
 72
65
 73
4
 40
0.6
 49
0.375
 74
0
 49
-0.075
 74
0
 49
0.075
 74
0
 49
-0.075
 74
0
  0
LTYPE
  5
1F6
100
AcDbSymbolTableRecord
100
AcDbLinetypeTableRecord
  2
HIDDEN
 70
64
  3
- - - - - - - - - - - - - - - - - - - -
 72
65
 73
2
 40
0.2
 49
0.1
 74
0
 49
-0.1
 74
0
  0
LTYPE
  5
1F7
100
AcDbSymbolTableRecord
100
AcDbLinetypeTableRecord
  2
PHANTOM
 70
64
  3
_____ _ _ _____ _ _ _____ _ _ _____
 72
65
 73
6
 40
0.8
 49
0.45
 74
0
 49
-0.05
 74
0
 49
0.1
 74
0
 49
-0.05
 74
0
 49
0.1
 74
0
 49
-0.05
 74
0
  0
LTYPE
  5
1F8
100
AcDbSymbolTableRecord
100
AcDbLinetypeTableRecord
  2
DOT
 70
64
  3
. . . . . . . . . . . . . . . . . . . .
 72
65
 73
2
 40
0.2
 49
0.1
 74
0
 49
-0.1
 74
0
  0
LTYPE
  5
1F9
100
AcDbSymbolTableRecord
100
AcDbLinetypeTableRecord
  2
DASHED
 70
64
  3
- - - - - - - - - - - - - - - - - - - -
 72
65
 73
2
 40
0.2
 49
0.1
 74
0
 49
-0.1
 74
0
  0
ENDTAB
  0
TABLE
  2
LAYER
  5
2
100
AcDbSymbolTable
 70
36
  0
LAYER
  5
10
100
AcDbSymbolTableRecord
100
AcDbLayerTableRecord
  2
0
 70
0
 62
7
  6
CONTINUOUS
370
-3
390
F
  0
LAYER
  5
1FA
100
AcDbSymbolTableRecord
100
AcDbLayerTableRecord
  2
DEFAULT_1
 70
0
 62
7
  6
CENTER
370
-3
390
F
  0
LAYER
  5
1FB
100
AcDbSymbolTableRecord
100
AcDbLayerTableRecord
  2
DEFAULT_2
 70
0
 62
8
  6
HIDDEN
370
-3
390
F
  0
LAYER
  5
1FC
100
AcDbSymbolTableRecord
100
AcDbLayerTableRecord
  2
DEFAULT_3
 70
0
 62
7
  6
PHANTOM
370
-3
390
F
  0
LAYER
  5
1FD
100
AcDbSymbolTableRecord
100
AcDbLayerTableRecord
  2
Defpoints
 70
0
 62
7
  6
CONTINUOUS
290
0
370
-3
390
F
  0
LAYER
  5
1FE
100
AcDbSymbolTableRecord
100
AcDbLayerTableRecord
  2
___NOTE
 70
0
 62
7
  6
CONTINUOUS
370
-3
390
F
  0
ENDTAB
  0
TABLE
  2
STYLE
  5
3
100
AcDbSymbolTable
 70
1
  0
STYLE
  5
11
100
AcDbSymbolTableRecord
100
AcDbTextStyleTableRecord
  2
STANDARD
 70
0
 40
0.0
 41
0.8
 50
0.0
 71
0
 42
0.2
  3
txt
  4

  0
STYLE
  5
1FF
100
AcDbSymbolTableRecord
100
AcDbTextStyleTableRecord
  2
TEXTSTYLE_1
 70
0
 40
0.0
 41
0.8
 50
0.0
 71
0
 42
0.2
  3
gdt
  4

  0
ENDTAB
  0
TABLE
  2
VIEW
  5
6
100
AcDbSymbolTable
 70
0
  0
ENDTAB
  0
TABLE
  2
UCS
  5
7
100
AcDbSymbolTable
 70
0
  0
ENDTAB
  0
TABLE
  2
APPID
  5
9
100
AcDbSymbolTable
 70
1
  0
APPID
  5
200
100
AcDbSymbolTableRecord
100
AcDbRegAppTableRecord
  2
ACAD
 70
0
  0
ENDTAB
  0
TABLE
  2
BLOCK_RECORD
  5
1
100
AcDbSymbolTable
 70
0
  0
BLOCK_RECORD
  5
201
100
AcDbSymbolTableRecord
100
AcDbBlockTableRecord
  2
*Model_Space
  0
BLOCK_RECORD
  5
202
100
AcDbSymbolTableRecord
100
AcDbBlockTableRecord
  2
*Paper_Space
  0
BLOCK_RECORD
  5
203
100
AcDbSymbolTableRecord
100
AcDbBlockTableRecord
  2
_FILLED
  0
ENDTAB
  0
TABLE
  2
DIMSTYLE
  5
A
100
AcDbSymbolTable
 70
1
100
AcDbDimStyleTable
 71
0
  0
DIMSTYLE
105
204
100
AcDbSymbolTableRecord
100
AcDbDimStyleTableRecord
  2
STANDARD
 70
0
  3

  4

 40
1.0
 41
4.7625
 42
1.0
 43
0.38
 44
1.5
 45
0.0
 46
0.0
 47
0.01
 48
0.01
140
3.96875
141
0.09
142
0.0
143
25.4
144
1.0
145
0.0
146
1.0
147
0.09
 71
1
 72
0
 73
1
 74
1
 75
0
 76
0
 77
0
 78
8
 79
2
170
0
171
2
172
0
173
0
174
0
175
0
176
0
177
0
178
0
270
2
179
3
271
3
272
3
273
2
274
2
275
0
280
0
281
0
282
0
283
1
284
8
285
0
286
0
287
3
288
0
340
11
278
46
341
203
342
203
343
203
344
203
  0
ENDTAB
  0
ENDSEC
  0
SECTION
  2
BLOCKS
  0
BLOCK
  5
20
100
AcDbEntity
  8
0
100
AcDbBlockBegin
  2
*Model_Space
 70
0
 10
0.0
 20
0.0
 30
0.0
  3
*Model_Space
  1

  0
ENDBLK
  5
21
100
AcDbEntity
  8
0
100
AcDbBlockEnd
  0
BLOCK
  5
1C
100
AcDbEntity
  8
0
100
AcDbBlockBegin
  2
*Paper_Space
 70
0
 10
0.0
 20
0.0
 30
0.0
  3
*Paper_Space
  1

  0
ENDBLK
  5
1D
100
AcDbEntity
  8
0
100
AcDbBlockEnd
  0
BLOCK
  5
205
100
AcDbEntity
  8
0
100
AcDbBlockBegin
  2
_FILLED
 70
64
 10
0.0
 20
0.0
  3
_FILLED
  1

  0
SOLID
  5
206
100
AcDbEntity
  8
0
  6
BYBLOCK
 62
0
100
AcDbTrace
 10
0.0
 20
0.0
 11
-1.0
 21
0.1666666667
 12
-1.0
 22
-0.1666666667
 13
-1.0
 23
-0.1666666667
  0
ENDBLK
  5
207
100
AcDbEntity
  8
0
  6
BYBLOCK
 62
0
100
AcDbBlockEnd
  0
ENDSEC
  0
SECTION
  2
ENTITIES
  0
LWPOLYLINE
  5
208
100
AcDbEntity
  8
Defpoints
100
AcDbPolyline
 62
7
  6
CONTINUOUS
 90
4
 70
0
 43
0.3810000124
 10
5.2495443538
 20
0.0
 10
5.249144257
 20
0.0
 10
5.249144257
 20
0.001
 10
5.2495443538
 20
0.001
  0
LINE
  5
209
100
AcDbEntity
  8
0
100
AcDbLine
 62
7
  6
CONTINUOUS
 10
0.0
 20
0.0
 11
10.5017491704
 21
0.0
  0
LWPOLYLINE
  5
20A
100
AcDbEntity
  8
Defpoints
100
AcDbPolyline
 62
7
  6
CONTINUOUS
 90
2
 70
0
 43
0.3810000124
 10
5.2475940327
 20
0.0003333333
 10
5.2478944076
 20
0.0003333333
  0
LWPOLYLINE
  5
20B
100
AcDbEntity
  8
Defpoints
100
AcDbPolyline
 62
7
  6
CONTINUOUS
 90
2
 70
0
 43
0.3810000124
 10
5.2515943969
 20
0.0003333333
 10
5.2518941674
 20
0.0003333333
  0
LWPOLYLINE
  5
20C
100
AcDbEntity
  8
Defpoints
100
AcDbPolyline
 62
7
  6
CONTINUOUS
 90
2
 70
0
 43
0.3810000124
 10
5.249144257
 20
0.0005
 10
5.2493944686
 20
0.0005
  0
LWPOLYLINE
  5
20D
100
AcDbEntity
  8
Defpoints
100
AcDbPolyline
 62
7
  6
CONTINUOUS
 90
2
 70
0
 43
0.3810000124
 10
5.2482945044
 20
0.001
 10
5.2487943233
 20
0.001
  0
LWPOLYLINE
  5
20E
100
AcDbEntity
  8
Defpoints
100
AcDbPolyline
 62
7
  6
CONTINUOUS
 90
3
 70
0
 43
0.3810000124
 10
5.249144257
 20
0.0026666668
 10
5.2493443054
 20
0.0026666668
 10
5.2494440274
 20
0.0025833334
  0
LWPOLYLINE
  5
20F
100
AcDbEntity
  8
Defpoints
100
AcDbPolyline
 62
7
  6
CONTINUOUS
 90
2
 70
0
 43
0.3810000124
 10
5.2514940705
 20
0.0026666668
 10
5.2519944938
 20
0.0026666668
  0
LWPOLYLINE
  5
210
100
AcDbEntity
  8
Defpoints
100
AcDbPolyline
 62
7
  6
CONTINUOUS
 90
4
 70
0
 43
0.3810000124
 10
5.2535441136
 20
0.0033333333
 10
5.2531440168
 20
0.0033333333
 10
5.2531440168
 20
0.0043333334
 10
5.2535441136
 20
0.0043333334
  0
LWPOLYLINE
  5
211
100
AcDbEntity
  8
Defpoints
100
AcDbPolyline
 62
7
  6
CONTINUOUS
 90
4
 70
0
 43
0.3810000124
 10
5.2503445475
 20
0.0033333333
 10
5.2499444507
 20
0.0033333333
 10
5.2499444507
 20
0.0043333334
 10
5.2503445475
 20
0.0043333334
  0
LWPOLYLINE
  5
212
100
AcDbEntity
  8
Defpoints
100
AcDbPolyline
 62
7
  6
CONTINUOUS
 90
2
 70
0
 43
0.3810000124
 10
5.2483942264
 20
0.0036666666
 10
5.2486946013
 20
0.0036666666
  0
LWPOLYLINE
  5
213
100
AcDbEntity
  8
Defpoints
100
AcDbPolyline
 62
7
  6
CONTINUOUS
 90
2
 70
0
 43
0.3810000124
 10
5.2515943969
 20
0.0036666666
 10
5.2518941674
 20
0.0036666666
  0
LWPOLYLINE
  5
214
100
AcDbEntity
  8
Defpoints
100
AcDbPolyline
 62
7
  6
CONTINUOUS
 90
2
 70
0
 43
0.3810000124
 10
5.2499444507
 20
0.0038333333
 10
5.2501940579
 20
0.0038333333
  0
LWPOLYLINE
  5
215
100
AcDbEntity
  8
Defpoints
100
AcDbPolyline
 62
7
  6
CONTINUOUS
 90
2
 70
0
 43
0.3810000124
 10
5.2531440168
 20
0.0038333333
 10
5.2533942284
 20
0.0038333333
  0
LWPOLYLINE
  5
216
100
AcDbEntity
  8
Defpoints
100
AcDbPolyline
 62
7
  6
CONTINUOUS
 90
2
 70
0
 43
0.3810000124
 10
5.246694117
 20
0.0043333334
 10
5.2471945403
 20
0.0043333334
  0
LWPOLYLINE
  5
217
100
AcDbEntity
  8
Defpoints
100
AcDbPolyline
 62
7
  6
CONTINUOUS
 90
3
 70
0
 43
0.3810000124
 10
5.249144257
 20
0.0043333334
 10
5.2493443054
 20
0.0043333334
 10
5.2494440274
 20
0.0042500001
  0
LWPOLYLINE
  5
218
100
AcDbEntity
  8
Defpoints
100
AcDbPolyline
 62
7
  6
CONTINUOUS
 90
4
 70
0
 43
0.3810000124
 10
5.2543443073
 20
0.0050000002
 10
5.2539442105
 20
0.0050000002
 10
5.2539442105
 20
0.0059999997
 10
5.2543443073
 20
0.0059999997
  0
LWPOLYLINE
  5
219
100
AcDbEntity
  8
Defpoints
100
AcDbPolyline
 62
7
  6
CONTINUOUS
 90
4
 70
0
 43
0.3810000124
 10
5.2495443538
 20
0.0050000002
 10
5.249144257
 20
0.0050000002
 10
5.249144257
 20
0.0059999997
 10
5.2495443538
 20
0.0059999997
  0
LWPOLYLINE
  5
21A
100
AcDbEntity
  8
Defpoints
100
AcDbPolyline
 62
7
  6
CONTINUOUS
 90
2
 70
0
 43
0.3810000124
 10
5.249144257
 20
0.0055000003
 10
5.2493944686
 20
0.0055000003
  0
LWPOLYLINE
  5
21B
100
AcDbEntity
  8
Defpoints
100
AcDbPolyline
 62
7
  6
CONTINUOUS
 90
2
 70
0
 43
0.3810000124
 10
5.2539442105
 20
0.0055000003
 10
5.2541944221
 20
0.0055000003
  0
LWPOLYLINE
  5
21C
100
AcDbEntity
  8
Defpoints
100
AcDbPolyline
 62
7
  6
CONTINUOUS
 90
2
 70
0
 43
0.3810000124
 10
5.2530944579
 20
0.0055833333
 10
5.2534443916
 20
0.0055833333
  0
LWPOLYLINE
  5
21D
100
AcDbEntity
  8
Defpoints
100
AcDbPolyline
 62
7
  6
CONTINUOUS
 90
12
 70
0
 43
0.3810000124
 10
5.2483440632
 20
0.0059999997
 10
5.2485441117
 20
0.0059999997
 10
5.2486444381
 20
0.0059166667
 10
5.2486946013
 20
0.005833333
 10
5.2487441601
 20
0.00575
 10
5.2487943233
 20
0.0055000003
 10
5.2487441601
 20
0.0052499999
 10
5.2486946013
 20
0.0051666669
 10
5.2486444381
 20
0.0050833332
 10
5.2485441117
 20
0.0050000002
 10
5.2483440632
 20
0.0050000002
 10
5.2483440632
 20
0.0059999997
  0
LINE
  5
21E
100
AcDbEntity
  8
0
100
AcDbLine
 62
7
  6
CONTINUOUS
 10
10.5017491704
 20
0.0115042855
 11
0.0
 21
0.0115042855
  0
LINE
  5
21F
100
AcDbEntity
  8
0
100
AcDbLine
 62
7
  6
CONTINUOUS
 10
4.2608830879
 20
0.7115042855
 11
6.2408749071
 21
0.7115042855
  0
LINE
  5
220
100
AcDbEntity
  8
0
100
AcDbLine
 62
7
  6
CONTINUOUS
 10
4.2910570586
 20
0.7715045016
 11
6.2106935198
 21
0.7715045015
  0
LINE
  5
221
100
AcDbEntity
  8
0
100
AcDbLine
 62
7
  6
CONTINUOUS
 10
6.2106935198
 20
0.7715045015
 11
6.2208753313
 21
0.7715042855
  0
LINE
  5
222
100
AcDbEntity
  8
0
100
AcDbLine
 62
7
  6
CONTINUOUS
 10
7.5827572354
 20
2.6014470401
 11
7.3831397005
 21
2.5840539672
  0
LINE
  5
223
100
AcDbEntity
  8
0
100
AcDbLine
 62
7
  6
CONTINUOUS
 10
7.9489675235
 20
2.632855003
 11
7.822782284
 21
2.622032756
  0
LINE
  5
224
100
AcDbEntity
  8
0
100
AcDbLine
 62
7
  6
CONTINUOUS
 10
0.0
 20
0.0
 11
0.0
 21
16.7097853071
  0
LINE
  5
225
100
AcDbEntity
  8
0
100
AcDbLine
 62
7
  6
CONTINUOUS
 10
0.0
 20
0.0115042855
 11
0.0055180984
 21
0.1107706969
  0
LINE
  5
226
100
AcDbEntity
  8
0
100
AcDbLine
 62
7
  6
CONTINUOUS
 10
7.0208812075
 20
3.9364501204
 11
7.0710717575
 21
3.9287410251
  0
LWPOLYLINE
  5
227
100
AcDbEntity
  8
Defpoints
100
AcDbPolyline
 62
7
  6
CONTINUOUS
 90
4
 70
0
 43
0.3810000124
 10
5.2494440274
 20
0.0025833334
 10
5.2495443538
 20
0.0024166666
 10
5.249594517
 20
0.0021666667
 10
5.2495443538
 20
0.0019166667
  0
LWPOLYLINE
  5
228
100
AcDbEntity
  8
Defpoints
100
AcDbPolyline
 62
7
  6
CONTINUOUS
 90
4
 70
0
 43
0.3810000124
 10
5.2494440274
 20
0.0042500001
 10
5.2495443538
 20
0.0040833334
 10
5.249594517
 20
0.0038333333
 10
5.2495443538
 20
0.0035833333
  0
LINE
  5
229
100
AcDbEntity
  8
0
100
AcDbLine
 62
7
  6
CONTINUOUS
 10
4.5758749071
 20
5.5215042855
 11
5.9258749071
 21
5.5215042855
  0
LINE
  5
22A
100
AcDbEntity
  8
0
100
AcDbLine
 62
7
  6
CONTINUOUS
 10
4.5772827128
 20
5.5515042855
 11
5.9244650027
 21
5.5515042855
  0
LWPOLYLINE
  5
22B
100
AcDbEntity
  8
Defpoints
100
AcDbPolyline
 62
7
  6
CONTINUOUS
 90
2
 70
0
 43
0.3810000124
 10
5.2477940812
 20
0.0021666667
 10
5.2479445708
 20
0.0016666666
  0
LWPOLYLINE
  5
22C
100
AcDbEntity
  8
Defpoints
100
AcDbPolyline
 62
7
  6
CONTINUOUS
 90
2
 70
0
 43
0.3810000124
 10
5.2477940812
 20
0.0038333333
 10
5.2479445708
 20
0.0033333333
  0
LWPOLYLINE
  5
22D
100
AcDbEntity
  8
Defpoints
100
AcDbPolyline
 62
7
  6
CONTINUOUS
 90
2
 70
0
 43
0.3810000124
 10
5.2501940579
 20
0.0005
 10
5.2503445475
 20
0.0
  0
LWPOLYLINE
  5
22E
100
AcDbEntity
  8
Defpoints
100
AcDbPolyline
 62
7
  6
CONTINUOUS
 90
2
 70
0
 43
0.3810000124
 10
5.2549940114
 20
0.0055000003
 10
5.255144501
 20
0.0050000002
  0
LINE
  5
22F
100
AcDbEntity
  8
0
100
AcDbLine
 62
7
  6
CONTINUOUS
 10
4.2608749071
 20
0.7515042855
 11
4.2608749049
 21
0.7115031298
  0
LINE
  5
230
100
AcDbEntity
  8
0
100
AcDbLine
 62
7
  6
CONTINUOUS
 10
4.5758749071
 20
5.5315042855
 11
4.5758749071
 21
5.5215042855
  0
LINE
  5
231
100
AcDbEntity
  8
0
100
AcDbLine
 62
7
  6
CONTINUOUS
 10
4.2554871963
 20
2.7780090114
 11
4.2510877916
 21
0.8115045142
  0
LINE
  5
232
100
AcDbEntity
  8
0
100
AcDbLine
 62
7
  6
CONTINUOUS
 10
4.6877987408
 20
12.6575075691
 11
4.6793735393
 21
12.4062887868
  0
LINE
  5
233
100
AcDbEntity
  8
0
100
AcDbLine
 62
7
  6
CONTINUOUS
 10
4.6883838275
 20
13.1305537939
 11
4.6883749071
 21
12.7108682607
  0
LWPOLYLINE
  5
234
100
AcDbEntity
  8
Defpoints
100
AcDbPolyline
 62
7
  6
CONTINUOUS
 90
5
 70
0
 43
0.3810000124
 10
5.246694117
 20
0.0
 10
5.246694117
 20
0.001
 10
5.2469443286
 20
0.0001666667
 10
5.2471945403
 20
0.001
 10
5.2471945403
 20
0.0
  0
LWPOLYLINE
  5
235
100
AcDbEntity
  8
Defpoints
100
AcDbPolyline
 62
7
  6
CONTINUOUS
 90
5
 70
0
 43
0.3810000124
 10
5.246694117
 20
0.0050000002
 10
5.246694117
 20
0.0059999997
 10
5.2469443286
 20
0.0051666669
 10
5.2471945403
 20
0.0059999997
 10
5.2471945403
 20
0.0050000002
  0
LWPOLYLINE
  5
236
100
AcDbEntity
  8
Defpoints
100
AcDbPolyline
 62
7
  6
CONTINUOUS
 90
9
 70
0
 43
0.3810000124
 10
5.2467442802
 20
0.0016666666
 10
5.2467442802
 20
0.0026666668
 10
5.2469944918
 20
0.0026666668
 10
5.2470942138
 20
0.0025833334
 10
5.2471443771
 20
0.0025000001
 10
5.2471443771
 20
0.0023333334
 10
5.2470942138
 20
0.0022500001
 10
5.2469944918
 20
0.0021666667
 10
5.2467442802
 20
0.0021666667
  0
LWPOLYLINE
  5
237
100
AcDbEntity
  8
Defpoints
100
AcDbPolyline
 62
7
  6
CONTINUOUS
 90
2
 70
0
 43
0.3810000124
 10
5.2469443286
 20
0.0043333334
 10
5.2469443286
 20
0.0033333333
  0
LWPOLYLINE
  5
238
100
AcDbEntity
  8
Defpoints
100
AcDbPolyline
 62
7
  6
CONTINUOUS
 90
9
 70
0
 43
0.3810000124
 10
5.2475444739
 20
0.0016666666
 10
5.2475444739
 20
0.0026666668
 10
5.2477940812
 20
0.0026666668
 10
5.2478944076
 20
0.0025833334
 10
5.2479445708
 20
0.0025000001
 10
5.2479445708
 20
0.0023333334
 10
5.2478944076
 20
0.0022500001
 10
5.2477940812
 20
0.0021666667
 10
5.2475444739
 20
0.0021666667
  0
LWPOLYLINE
  5
239
100
AcDbEntity
  8
Defpoints
100
AcDbPolyline
 62
7
  6
CONTINUOUS
 90
9
 70
0
 43
0.3810000124
 10
5.2475444739
 20
0.0033333333
 10
5.2475444739
 20
0.0043333334
 10
5.2477940812
 20
0.0043333334
 10
5.2478944076
 20
0.0042500001
 10
5.2479445708
 20
0.0041666667
 10
5.2479445708
 20
0.004
 10
5.2478944076
 20
0.0039166667
 10
5.2477940812
 20
0.0038333333
 10
5.2475444739
 20
0.0038333333
  0
LWPOLYLINE
  5
23A
100
AcDbEntity
  8
Defpoints
100
AcDbPolyline
 62
7
  6
CONTINUOUS
 90
2
 70
0
 43
0.3810000124
 10
5.2485441117
 20
0.001
 10
5.2485441117
 20
0.0
  0
LWPOLYLINE
  5
23B
100
AcDbEntity
  8
Defpoints
100
AcDbPolyline
 62
7
  6
CONTINUOUS
 90
9
 70
0
 43
0.3810000124
 10
5.2499444507
 20
0.0
 10
5.2499444507
 20
0.001
 10
5.2501940579
 20
0.001
 10
5.2502943843
 20
0.0009166667
 10
5.2503445475
 20
0.0008333333
 10
5.2503445475
 20
0.0006666667
 10
5.2502943843
 20
0.0005833333
 10
5.2501940579
 20
0.0005
 10
5.2499444507
 20
0.0005
  0
LWPOLYLINE
  5
23C
100
AcDbEntity
  8
Defpoints
100
AcDbPolyline
 62
7
  6
CONTINUOUS
 90
3
 70
0
 43
0.3810000124
 10
5.2499444507
 20
0.0059999997
 10
5.2499444507
 20
0.0050000002
 10
5.2503445475
 20
0.0050000002
  0
LWPOLYLINE
  5
23D
100
AcDbEntity
  8
Defpoints
100
AcDbPolyline
 62
7
  6
CONTINUOUS
 90
8
 70
0
 43
0.3810000124
 10
5.2503445475
 20
0.0026666668
 10
5.2503445475
 20
0.0018333333
 10
5.2502943843
 20
0.00175
 10
5.2501940579
 20
0.0016666666
 10
5.2500943359
 20
0.0016666666
 10
5.2499940095
 20
0.00175
 10
5.2499444507
 20
0.0018333333
 10
5.2499444507
 20
0.0026666668
  0
LWPOLYLINE
  5
23E
100
AcDbEntity
  8
Defpoints
100
AcDbPolyline
 62
7
  6
CONTINUOUS
 90
4
 70
0
 43
0.3810000124
 10
5.25074404
 20
0.0033333333
 10
5.25074404
 20
0.0043333334
 10
5.2511441369
 20
0.0033333333
 10
5.2511441369
 20
0.0043333334
  0
LWPOLYLINE
  5
23F
100
AcDbEntity
  8
Defpoints
100
AcDbPolyline
 62
7
  6
CONTINUOUS
 90
4
 70
0
 43
0.3810000124
 10
5.25074404
 20
0.0050000002
 10
5.25074404
 20
0.0059999997
 10
5.2511441369
 20
0.0050000002
 10
5.2511441369
 20
0.0059999997
  0
LWPOLYLINE
  5
240
100
AcDbEntity
  8
Defpoints
100
AcDbPolyline
 62
7
  6
CONTINUOUS
 90
2
 70
0
 43
0.3810000124
 10
5.2509440884
 20
0.001
 10
5.2509440884
 20
0.0
  0
LWPOLYLINE
  5
241
100
AcDbEntity
  8
Defpoints
100
AcDbPolyline
 62
7
  6
CONTINUOUS
 90
2
 70
0
 43
0.3810000124
 10
5.2517442821
 20
0.0026666668
 10
5.2517442821
 20
0.0016666666
  0
LWPOLYLINE
  5
242
100
AcDbEntity
  8
Defpoints
100
AcDbPolyline
 62
7
  6
CONTINUOUS
 90
8
 70
0
 43
0.3810000124
 10
5.2519443306
 20
0.0059999997
 10
5.2519443306
 20
0.0051666669
 10
5.2518941674
 20
0.0050833332
 10
5.2517944453
 20
0.0050000002
 10
5.2516941189
 20
0.0050000002
 10
5.2515943969
 20
0.0050833332
 10
5.2515442337
 20
0.0051666669
 10
5.2515442337
 20
0.0059999997
  0
LWPOLYLINE
  5
243
100
AcDbEntity
  8
Defpoints
100
AcDbPolyline
 62
7
  6
CONTINUOUS
 90
5
 70
0
 43
0.3810000124
 10
5.2522942642
 20
0.0033333333
 10
5.2522942642
 20
0.0043333334
 10
5.2525444759
 20
0.0034999999
 10
5.2527940831
 20
0.0043333334
 10
5.2527940831
 20
0.0033333333
  0
LWPOLYLINE
  5
244
100
AcDbEntity
  8
Defpoints
100
AcDbPolyline
 62
7
  6
CONTINUOUS
 90
5
 70
0
 43
0.3810000124
 10
5.2522942642
 20
0.0050000002
 10
5.2522942642
 20
0.0059999997
 10
5.2525444759
 20
0.0051666669
 10
5.2527940831
 20
0.0059999997
 10
5.2527940831
 20
0.0050000002
  0
LWPOLYLINE
  5
245
100
AcDbEntity
  8
Defpoints
100
AcDbPolyline
 62
7
  6
CONTINUOUS
 90
3
 70
0
 43
0.3810000124
 10
5.2523444274
 20
0.001
 10
5.2523444274
 20
0.0
 10
5.2527445243
 20
0.0
  0
LWPOLYLINE
  5
246
100
AcDbEntity
  8
Defpoints
100
AcDbPolyline
 62
7
  6
CONTINUOUS
 90
12
 70
0
 43
0.3810000124
 10
5.2530944579
 20
0.0059999997
 10
5.2530944579
 20
0.0050000002
 10
5.2534443916
 20
0.0050000002
 10
5.2534945548
 20
0.0050833332
 10
5.2535441136
 20
0.0051666669
 10
5.2535441136
 20
0.0054166666
 10
5.2534945548
 20
0.0055000003
 10
5.2534443916
 20
0.0055833333
 10
5.2534945548
 20
0.0056666669
 10
5.2534945548
 20
0.0059166667
 10
5.2534443916
 20
0.0059999997
 10
5.2530944579
 20
0.0059999997
  0
LWPOLYLINE
  5
247
100
AcDbEntity
  8
Defpoints
100
AcDbPolyline
 62
7
  6
CONTINUOUS
 90
9
 70
0
 43
0.3810000124
 10
5.2547444042
 20
0.0050000002
 10
5.2547444042
 20
0.0059999997
 10
5.2549940114
 20
0.0059999997
 10
5.2550943378
 20
0.0059166667
 10
5.255144501
 20
0.005833333
 10
5.255144501
 20
0.0056666669
 10
5.2550943378
 20
0.0055833333
 10
5.2549940114
 20
0.0055000003
 10
5.2547444042
 20
0.0055000003
  0
LINE
  5
248
100
AcDbEntity
  8
0
100
AcDbLine
 62
7
  6
CONTINUOUS
 10
4.781874952
 20
9.6074087989
 11
4.7755107612
 21
9.0709005024
  0
LINE
  5
249
100
AcDbEntity
  8
0
100
AcDbLine
 62
7
  6
CONTINUOUS
 10
4.5536462403
 20
5.4839933623
 11
4.5154530551
 21
4.9396921646
  0
LINE
  5
24A
100
AcDbEntity
  8
0
100
AcDbLine
 62
7
  6
CONTINUOUS
 10
7.3527754504
 20
2.6027068576
 11
7.1802730121
 21
3.029415577
  0
LINE
  5
24B
100
AcDbEntity
  8
0
100
AcDbLine
 62
7
  6
CONTINUOUS
 10
5.8133465025
 20
13.1311674295
 11
5.813374907
 21
12.7108705531
  0
LINE
  5
24C
100
AcDbEntity
  8
0
100
AcDbLine
 62
7
  6
CONTINUOUS
 10
5.9258749071
 20
5.5215042855
 11
5.9258749071
 21
5.5315042855
  0
LINE
  5
24D
100
AcDbEntity
  8
0
100
AcDbLine
 62
7
  6
CONTINUOUS
 10
6.2506621021
 20
0.8115045138
 11
6.2494244577
 21
2.3321434077
  0
LINE
  5
24E
100
AcDbEntity
  8
0
100
AcDbLine
 62
7
  6
CONTINUOUS
 10
6.2408749071
 20
0.7515042856
 11
6.2408749071
 21
0.7115042855
  0
LINE
  5
24F
100
AcDbEntity
  8
0
100
AcDbLine
 62
7
  6
CONTINUOUS
 10
5.4321347943
 20
9.563800077
 11
5.4053060543
 21
9.5606462499
  0
LINE
  5
250
100
AcDbEntity
  8
0
100
AcDbLine
 62
7
  6
CONTINUOUS
 10
5.4053060543
 20
9.5606462499
 11
5.0969549242
 21
9.5608036812
  0
LINE
  5
251
100
AcDbEntity
  8
0
100
AcDbLine
 62
7
  6
CONTINUOUS
 10
5.0964672717
 20
9.5608400945
 11
5.0969549242
 21
9.5608036812
  0
LINE
  5
252
100
AcDbEntity
  8
0
100
AcDbLine
 62
7
  6
CONTINUOUS
 10
5.0696158872
 20
9.5637999627
 11
5.0964672717
 21
9.5608400945
  0
LINE
  5
253
100
AcDbEntity
  8
0
100
AcDbLine
 62
7
  6
CONTINUOUS
 10
7.0208749071
 20
2.5578233525
 11
7.0207548139
 21
3.9851852024
  0
LINE
  5
254
100
AcDbEntity
  8
0
100
AcDbLine
 62
7
  6
CONTINUOUS
 10
7.0710717575
 20
3.5913277984
 11
7.0711890429
 21
4.0048509879
  0
LWPOLYLINE
  5
255
100
AcDbEntity
  8
Defpoints
100
AcDbPolyline
 62
7
  6
CONTINUOUS
 90
3
 70
0
 43
0.3810000124
 10
5.2482945044
 20
0.0033333333
 10
5.2485441117
 20
0.0043333334
 10
5.2487943233
 20
0.0033333333
  0
LWPOLYLINE
  5
256
100
AcDbEntity
  8
Defpoints
100
AcDbPolyline
 62
7
  6
CONTINUOUS
 90
3
 70
0
 43
0.3810000124
 10
5.2474943107
 20
0.0
 10
5.2477445223
 20
0.001
 10
5.2479941296
 20
0.0
  0
LWPOLYLINE
  5
257
100
AcDbEntity
  8
Defpoints
100
AcDbPolyline
 62
7
  6
CONTINUOUS
 90
3
 70
0
 43
0.3810000124
 10
5.2514940705
 20
0.0033333333
 10
5.2517442821
 20
0.0043333334
 10
5.2519944938
 20
0.0033333333
  0
LWPOLYLINE
  5
258
100
AcDbEntity
  8
Defpoints
100
AcDbPolyline
 62
7
  6
CONTINUOUS
 90
3
 70
0
 43
0.3810000124
 10
5.2514940705
 20
0.0
 10
5.2517442821
 20
0.001
 10
5.2519944938
 20
0.0
  0
LINE
  5
259
100
AcDbEntity
  8
0
100
AcDbLine
 62
7
  6
CONTINUOUS
 10
10.4962283059
 20
0.1107708222
 11
10.5017491704
 21
0.0115042855
  0
LWPOLYLINE
  5
25A
100
AcDbEntity
  8
Defpoints
100
AcDbPolyline
 62
7
  6
CONTINUOUS
 90
19
 70
0
 43
0.3810000124
 10
5.2487441601
 20
0.0018333333
 10
5.2486946013
 20
0.00175
 10
5.2485942749
 20
0.0016666666
 10
5.2484945528
 20
0.0016666666
 10
5.2483942264
 20
0.00175
 10
5.2483440632
 20
0.0018333333
 10
5.2482945044
 20
0.0019166667
 10
5.2482443412
 20
0.0021666667
 10
5.2482945044
 20
0.0024166666
 10
5.2483440632
 20
0.0025000001
 10
5.2483942264
 20
0.0025833334
 10
5.2484945528
 20
0.0026666668
 10
5.2485942749
 20
0.0026666668
 10
5.2486946013
 20
0.0025833334
 10
5.2487441601
 20
0.0025000001
 10
5.2487943233
 20
0.0024166666
 10
5.2488444865
 20
0.0021666667
 10
5.2487943233
 20
0.0019166667
 10
5.2487441601
 20
0.0018333333
  0
LWPOLYLINE
  5
25B
100
AcDbEntity
  8
Defpoints
100
AcDbPolyline
 62
7
  6
CONTINUOUS
 90
15
 70
0
 43
0.3810000124
 10
5.2511441369
 20
0.0018333333
 10
5.251094578
 20
0.00175
 10
5.2509942516
 20
0.0016666666
 10
5.2508945296
 20
0.0016666666
 10
5.2507942032
 20
0.00175
 10
5.25074404
 20
0.0018333333
 10
5.2506944812
 20
0.0019166667
 10
5.250644318
 20
0.0021666667
 10
5.2506944812
 20
0.0024166666
 10
5.25074404
 20
0.0025000001
 10
5.2507942032
 20
0.0025833334
 10
5.2508945296
 20
0.0026666668
 10
5.2509942516
 20
0.0026666668
 10
5.251094578
 20
0.0025833334
 10
5.2511441369
 20
0.0025000001
  0
LWPOLYLINE
  5
25C
100
AcDbEntity
  8
Defpoints
100
AcDbPolyline
 62
7
  6
CONTINUOUS
 90
19
 70
0
 43
0.3810000124
 10
5.2479445708
 20
0.0051666669
 10
5.2478944076
 20
0.0050833332
 10
5.2477940812
 20
0.0050000002
 10
5.2476943591
 20
0.0050000002
 10
5.2475940327
 20
0.0050833332
 10
5.2475444739
 20
0.0051666669
 10
5.2474943107
 20
0.0052499999
 10
5.2474441475
 20
0.0055000003
 10
5.2474943107
 20
0.00575
 10
5.2475444739
 20
0.005833333
 10
5.2475940327
 20
0.0059166667
 10
5.2476943591
 20
0.0059999997
 10
5.2477940812
 20
0.0059999997
 10
5.2478944076
 20
0.0059166667
 10
5.2479445708
 20
0.005833333
 10
5.2479941296
 20
0.00575
 10
5.2480442928
 20
0.0055000003
 10
5.2479941296
 20
0.0052499999
 10
5.2479445708
 20
0.0051666669
  0
LWPOLYLINE
  5
25D
100
AcDbEntity
  8
Defpoints
100
AcDbPolyline
 62
7
  6
CONTINUOUS
 90
5
 70
0
 43
0.3810000124
 10
5.2495443538
 20
0.0035833333
 10
5.2494440274
 20
0.0034166666
 10
5.2493443054
 20
0.0033333333
 10
5.249144257
 20
0.0033333333
 10
5.249144257
 20
0.0043333334
  0
LWPOLYLINE
  5
25E
100
AcDbEntity
  8
Defpoints
100
AcDbPolyline
 62
7
  6
CONTINUOUS
 90
5
 70
0
 43
0.3810000124
 10
5.2495443538
 20
0.0019166667
 10
5.2494440274
 20
0.00175
 10
5.2493443054
 20
0.0016666666
 10
5.249144257
 20
0.0016666666
 10
5.249144257
 20
0.0026666668
  0
LINE
  5
25F
100
AcDbEntity
  8
0
100
AcDbLine
 62
7
  6
CONTINUOUS
 10
10.5017491704
 20
0.0
 11
10.5017491704
 21
16.7097853071
  0
LINE
  5
260
100
AcDbEntity
  8
0
100
AcDbLine
 62
7
  6
CONTINUOUS
 10
0.0
 20
16.7097853071
 11
10.5017491704
 21
16.7097853071
  0
ARC
  5
261
100
AcDbEntity
  8
0
100
AcDbCircle
 62
7
  6
CONTINUOUS
 10
-66.7447757246
 20
11.7759427327
 40
71.571423295
100
AcDbArc
 50
355.0278683119
 51
357.8339898975
  0
ARC
  5
262
100
AcDbEntity
  8
0
100
AcDbCircle
 62
7
  6
CONTINUOUS
 10
-40.2689968226
 20
12.8801991358
 40
46.0830267172
100
AcDbArc
 50
0.3120345195
 51
4.310002001
  0
ARC
  5
263
100
AcDbEntity
  8
0
100
AcDbCircle
 62
7
  6
CONTINUOUS
 10
-5.2892933547
 20
12.740611031
 40
9.9742714524
100
AcDbArc
 50
351.1258565825
 51
358.0791737744
  0
ARC
  5
264
100
AcDbEntity
  8
0
100
AcDbCircle
 62
7
  6
CONTINUOUS
 10
5.2509348055
 20
-535.4595949369
 40
535.7165116207
100
AcDbArc
 50
89.450969058
 51
90.5490230006
  0
ARC
  5
265
100
AcDbEntity
  8
0
100
AcDbCircle
 62
7
  6
CONTINUOUS
 10
5.2508749071
 20
-60.3792351341
 40
70.1444005315
100
AcDbArc
 50
89.8716905683
 51
90.1283094317
  0
ARC
  5
266
100
AcDbEntity
  8
0
100
AcDbCircle
 62
7
  6
CONTINUOUS
 10
6.6104172263
 20
-51.8689616435
 40
52.5043085487
100
AcDbArc
 50
92.7851729618
 51
97.1036976423
  0
ARC
  5
267
100
AcDbEntity
  8
0
100
AcDbCircle
 62
7
  6
CONTINUOUS
 10
4.0649792521
 20
-49.8739323886
 40
50.5031739677
100
AcDbArc
 50
82.8118932453
 51
87.2963835885
  0
ARC
  5
268
100
AcDbEntity
  8
0
100
AcDbCircle
 62
7
  6
CONTINUOUS
 10
6.1712079414
 20
-4.2559256602
 40
8.3207920304
100
AcDbArc
 50
84.3898134373
 51
89.5973364144
  0
ARC
  5
269
100
AcDbEntity
  8
0
100
AcDbCircle
 62
7
  6
CONTINUOUS
 10
-1.6877335133
 20
5.4278361089
 40
6.2223635471
100
AcDbArc
 50
350.7618394924
 51
355.5005271546
  0
ARC
  5
26A
100
AcDbEntity
  8
0
100
AcDbCircle
 62
7
  6
CONTINUOUS
 10
4.3527229857
 20
5.6414250243
 40
4.1134372131
100
AcDbArc
 50
340.1921882137
 51
353.107523736
  0
ARC
  5
26B
100
AcDbEntity
  8
0
100
AcDbCircle
 62
7
  6
CONTINUOUS
 10
5.2534582791
 20
2.8183533516
 40
2.5429284248
100
AcDbArc
 50
241.9882380732
 51
297.9973919722
  0
ARC
  5
26C
100
AcDbEntity
  8
0
100
AcDbCircle
 62
7
  6
CONTINUOUS
 10
5.9411661022
 20
4.6969162684
 40
2.3761747178
100
AcDbArc
 50
24.819937767
 51
35.3588033918
  0
ARC
  5
26D
100
AcDbEntity
  8
0
100
AcDbCircle
 62
7
  6
CONTINUOUS
 10
6.9152853891
 20
5.2126915669
 40
1.5225315429
100
AcDbArc
 50
357.55673589
 51
44.1191016972
  0
ARC
  5
26E
100
AcDbEntity
  8
0
100
AcDbCircle
 62
7
  6
CONTINUOUS
 10
8.5691898111
 20
3.5909028951
 40
1.4981181139
100
AcDbArc
 50
179.9837495022
 51
202.0116489163
  0
ARC
  5
26F
100
AcDbEntity
  8
0
100
AcDbCircle
 62
7
  6
CONTINUOUS
 10
7.0781814465
 20
3.3406167845
 40
1.3054048484
100
AcDbArc
 50
139.4276330206
 51
230.5899679331
  0
ARC
  5
270
100
AcDbEntity
  8
0
100
AcDbCircle
 62
7
  6
CONTINUOUS
 10
6.9372905749
 20
5.1683703171
 40
1.2741969297
100
AcDbArc
 50
324.3185742232
 51
24.3808204711
  0
ARC
  5
271
100
AcDbEntity
  8
0
100
AcDbCircle
 62
7
  6
CONTINUOUS
 10
7.2311775679
 20
4.9124807303
 40
0.886974439
100
AcDbArc
 50
261.7151445805
 51
326.6727799887
  0
ARC
  5
272
100
AcDbEntity
  8
0
100
AcDbCircle
 62
7
  6
CONTINUOUS
 10
6.9321796153
 20
3.351294664
 40
0.75
100
AcDbArc
 50
276.7922000256
 51
300.3955875023
  0
ARC
  5
273
100
AcDbEntity
  8
0
100
AcDbCircle
 62
7
  6
CONTINUOUS
 10
7.7559185238
 20
1.9920366656
 40
0.6335344004
100
AcDbArc
 50
83.941671774
 51
105.8622668008
  0
ARC
  5
274
100
AcDbEntity
  8
0
100
AcDbCircle
 62
7
  6
CONTINUOUS
 10
6.4579144813
 20
0.762975266
 40
0.1902513714
100
AcDbArc
 50
206.475071152
 51
266.7681156251
  0
ARC
  5
275
100
AcDbEntity
  8
0
100
AcDbCircle
 62
7
  6
CONTINUOUS
 10
4.0503863691
 20
0.7537711091
 40
0.1806585704
100
AcDbArc
 50
272.7851729618
 51
336.2573521331
  0
ARC
  5
276
100
AcDbEntity
  8
0
100
AcDbCircle
 62
7
  6
CONTINUOUS
 10
6.3993364807
 20
2.3317674221
 40
0.1499124945
100
AcDbArc
 50
91.6525421326
 51
179.8563000714
  0
ARC
  5
277
100
AcDbEntity
  8
0
100
AcDbCircle
 62
7
  6
CONTINUOUS
 10
6.2307072448
 20
4.2102057773
 40
0.1455484827
100
AcDbArc
 50
188.254055098
 51
269.5973364144
  0
ARC
  5
278
100
AcDbEntity
  8
0
100
AcDbCircle
 62
7
  6
CONTINUOUS
 10
10.3663998339
 20
0.1035301836
 40
0.1300302234
100
AcDbArc
 50
3.1921250054
 51
82.0853916893
  0
ARC
  5
279
100
AcDbEntity
  8
0
100
AcDbCircle
 62
7
  6
CONTINUOUS
 10
0.1353185762
 20
0.1035554233
 40
0.1300008623
100
AcDbArc
 50
97.9026412156
 51
176.818349811
  0
ARC
  5
27A
100
AcDbEntity
  8
0
100
AcDbCircle
 62
7
  6
CONTINUOUS
 10
6.2320460118
 20
0.6496977396
 40
0.0624339532
100
AcDbArc
 50
27.1210306499
 51
81.8704529693
  0
ARC
  5
27B
100
AcDbEntity
  8
0
100
AcDbCircle
 62
7
  6
CONTINUOUS
 10
4.2695672306
 20
0.6499895162
 40
0.0621247227
100
AcDbArc
 50
98.0354410552
 51
150.0204346681
  0
ARC
  5
27C
100
AcDbEntity
  8
0
100
AcDbCircle
 62
7
  6
CONTINUOUS
 10
5.9079944089
 20
5.4812170695
 40
0.0402879767
100
AcDbArc
 50
3.9562740785
 51
89.6086217382
  0
ARC
  5
27D
100
AcDbEntity
  8
0
100
AcDbCircle
 62
7
  6
CONTINUOUS
 10
6.9807348871
 20
3.9851818352
 40
0.040019927
100
AcDbArc
 50
0.0048206636
 51
84.3898134373
  0
ARC
  5
27E
100
AcDbEntity
  8
0
100
AcDbCircle
 62
7
  6
CONTINUOUS
 10
4.2910878161
 20
0.8115045142
 40
0.0400000245
100
AcDbArc
 50
180.0
 51
269.9559431624
  0
ARC
  5
27F
100
AcDbEntity
  8
0
100
AcDbCircle
 62
7
  6
CONTINUOUS
 10
6.2106620781
 20
0.8115045135
 40
0.040000024
100
AcDbArc
 50
270.0442238976
 51
0.0000004365
  0
ARC
  5
280
100
AcDbEntity
  8
0
100
AcDbCircle
 62
7
  6
CONTINUOUS
 10
6.9808751689
 20
2.5578199871
 40
0.0399997383
100
AcDbArc
 50
275.4115065746
 51
0.0048206636
  0
ARC
  5
281
100
AcDbEntity
  8
0
100
AcDbCircle
 62
7
  6
CONTINUOUS
 10
4.5935630135
 20
5.4815102616
 40
0.0399939317
100
AcDbArc
 50
90.1189614301
 51
176.4403910453
  0
ARC
  5
282
100
AcDbEntity
  8
0
100
AcDbCircle
 62
7
  6
CONTINUOUS
 10
7.3805960004
 20
2.6139536695
 40
0.0300078953
100
AcDbArc
 50
202.0116489163
 51
274.8627513903
  0
ARC
  5
283
100
AcDbEntity
  8
0
100
AcDbCircle
 62
7
  6
CONTINUOUS
 10
7.1010717615
 20
4.004850939
 40
0.030000004
100
AcDbArc
 50
85.6077171192
 51
179.9998746869
  0
ARC
  5
284
100
AcDbEntity
  8
0
100
AcDbCircle
 62
7
  6
CONTINUOUS
 10
7.946458616
 20
2.6626611224
 40
0.0299115257
100
AcDbArc
 50
274.8114865877
 51
359.4607498676
  0
ARC
  5
285
100
AcDbEntity
  8
0
100
AcDbCircle
 62
7
  6
CONTINUOUS
 10
4.2820375205
 20
0.7510225795
 40
0.021168095
100
AcDbArc
 50
79.8778194063
 51
178.6960516267
  0
ARC
  5
286
100
AcDbEntity
  8
0
100
AcDbCircle
 62
7
  6
CONTINUOUS
 10
5.9244650027
 20
5.5715062459
 40
0.0200019603
100
AcDbArc
 50
270.0
 51
3.9017294154
  0
ARC
  5
287
100
AcDbEntity
  8
0
100
AcDbCircle
 62
7
  6
CONTINUOUS
 10
4.5772827128
 20
5.5715042855
 40
0.02
100
AcDbArc
 50
176.3935607774
 51
270.0
  0
ARC
  5
288
100
AcDbEntity
  8
0
100
AcDbCircle
 62
7
  6
CONTINUOUS
 10
4.5958749071
 20
5.5315042855
 40
0.02
100
AcDbArc
 50
90.0
 51
180.0
  0
ARC
  5
289
100
AcDbEntity
  8
0
100
AcDbCircle
 62
7
  6
CONTINUOUS
 10
5.9058749071
 20
5.5315042855
 40
0.02
100
AcDbArc
 50
0.0
 51
90.0
  0
ARC
  5
28A
100
AcDbEntity
  8
0
100
AcDbCircle
 62
7
  6
CONTINUOUS
 10
6.2208749071
 20
0.7515042856
 40
0.02
100
AcDbArc
 50
359.9999999111
 51
89.9987848113
  0
ARC
  5
28B
100
AcDbEntity
  8
0
100
AcDbCircle
 62
7
  6
CONTINUOUS
 10
-1.6720670621
 20
9.8565635531
 40
7.7262709709
100
AcDbArc
 50
359.5673399098
 51
10.0280010886
  0
ARC
  5
28C
100
AcDbEntity
  8
0
100
AcDbCircle
 62
7
  6
CONTINUOUS
 10
5.2417755548
 20
7.3768569963
 40
2.6234666068
100
AcDbArc
 50
75.7612673378
 51
101.6047631576
  0
ARC
  5
28D
100
AcDbEntity
  8
0
100
AcDbCircle
 62
7
  6
CONTINUOUS
 10
5.0395444969
 20
10.9616434256
 40
1.3785300209
100
AcDbArc
 50
253.6969359977
 51
260.8939791727
  0
ARC
  5
28E
100
AcDbEntity
  8
0
100
AcDbCircle
 62
7
  6
CONTINUOUS
 10
5.3159873185
 20
10.5518347236
 40
0.9948380265
100
AcDbArc
 50
276.704580577
 51
282.4261150899
  0
ARC
  5
28F
100
AcDbEntity
  8
0
100
AcDbCircle
 62
7
  6
CONTINUOUS
 10
5.1765315767
 20
8.8309304553
 40
0.9377164471
100
AcDbArc
 50
95.062078774
 51
105.411685322
  0
ARC
  5
290
100
AcDbEntity
  8
0
100
AcDbCircle
 62
7
  6
CONTINUOUS
 10
5.3418592611
 20
8.9334693551
 40
0.8341431357
100
AcDbArc
 50
72.2587884017
 51
85.4550536906
  0
ARC
  5
291
100
AcDbEntity
  8
0
100
AcDbCircle
 62
7
  6
CONTINUOUS
 10
5.1469976587
 20
10.3291710973
 40
0.7692729764
100
AcDbArc
 50
253.4057034468
 51
264.2268085652
  0
ARC
  5
292
100
AcDbEntity
  8
0
100
AcDbCircle
 62
7
  6
CONTINUOUS
 10
4.8101600077
 20
9.3648706937
 40
0.5897115495
100
AcDbArc
 50
99.3807078169
 51
124.6421501238
  0
ARC
  5
293
100
AcDbEntity
  8
0
100
AcDbCircle
 62
7
  6
CONTINUOUS
 10
5.7056357503
 20
10.1517528618
 40
0.5328640642
100
AcDbArc
 50
285.8556535818
 51
303.2762508709
  0
ARC
  5
294
100
AcDbEntity
  8
0
100
AcDbCircle
 62
7
  6
CONTINUOUS
 10
5.7620501629
 20
9.4877951828
 40
0.4496574014
100
AcDbArc
 50
55.2749519807
 51
73.8597182857
  0
ARC
  5
295
100
AcDbEntity
  8
0
100
AcDbCircle
 62
7
  6
CONTINUOUS
 10
4.7600887894
 20
10.0662933218
 40
0.4410564888
100
AcDbArc
 50
231.7505359258
 51
255.8900143652
  0
ARC
  5
296
100
AcDbEntity
  8
0
100
AcDbCircle
 62
7
  6
CONTINUOUS
 10
5.022908454
 20
9.912770742
 40
0.3347762714
100
AcDbArc
 50
244.3429297966
 51
253.4057034468
  0
ARC
  5
297
100
AcDbEntity
  8
0
100
AcDbCircle
 62
7
  6
CONTINUOUS
 10
5.4752201364
 20
9.8996054294
 40
0.3239785512
100
AcDbArc
 50
279.7448474871
 51
302.5291224605
  0
ARC
  5
298
100
AcDbEntity
  8
0
100
AcDbCircle
 62
7
  6
CONTINUOUS
 10
8.11262562
 20
6.0354299336
 40
0.2813437212
100
AcDbArc
 50
119.7879089118
 51
151.5953546054
  0
ARC
  5
299
100
AcDbEntity
  8
0
100
AcDbCircle
 62
7
  6
CONTINUOUS
 10
4.9862322501
 20
9.5001201638
 40
0.2420825973
100
AcDbArc
 50
104.0820475073
 51
125.5559598242
  0
ARC
  5
29A
100
AcDbEntity
  8
0
100
AcDbCircle
 62
7
  6
CONTINUOUS
 10
5.5372907747
 20
9.5402564096
 40
0.1966656827
100
AcDbArc
 50
51.8690786935
 51
72.6195298421
  0
ARC
  5
29B
100
AcDbEntity
  8
0
100
AcDbCircle
 62
7
  6
CONTINUOUS
 10
5.9291348767
 20
9.8112004246
 40
0.1255216751
100
AcDbArc
 50
303.2762508709
 51
354.0645041231
  0
ARC
  5
29C
100
AcDbEntity
  8
0
100
AcDbCircle
 62
7
  6
CONTINUOUS
 10
4.925325652
 20
9.7186062528
 40
0.1175687103
100
AcDbArc
 50
223.3058290761
 51
246.2396196028
  0
ARC
  5
29D
100
AcDbEntity
  8
0
100
AcDbCircle
 62
7
  6
CONTINUOUS
 10
4.5579360556
 20
9.8043482859
 40
0.110247847
100
AcDbArc
 50
182.3621457056
 51
229.9772827799
  0
ARC
  5
29E
100
AcDbEntity
  8
0
100
AcDbCircle
 62
7
  6
CONTINUOUS
 10
5.976257162
 20
9.7915878197
 40
0.0780089333
100
AcDbArc
 50
4.8773557539
 51
57.4815594636
  0
ARC
  5
29F
100
AcDbEntity
  8
0
100
AcDbCircle
 62
7
  6
CONTINUOUS
 10
7.9285610258
 20
6.128692515
 40
0.075277025
100
AcDbArc
 50
147.3870735152
 51
228.8652406893
  0
ARC
  5
2A0
100
AcDbEntity
  8
0
100
AcDbCircle
 62
7
  6
CONTINUOUS
 10
4.5188404599
 20
9.7938241785
 40
0.0713249448
100
AcDbArc
 50
127.989249826
 51
175.0524628201
  0
ARC
  5
2A1
100
AcDbEntity
  8
0
100
AcDbCircle
 62
7
  6
CONTINUOUS
 10
5.6215500786
 20
9.6712331158
 40
0.0527510422
100
AcDbArc
 50
301.9086934912
 51
355.0358508429
  0
ARC
  5
2A2
100
AcDbEntity
  8
0
100
AcDbCircle
 62
7
  6
CONTINUOUS
 10
4.8715440538
 20
9.6682998522
 40
0.0439277977
100
AcDbArc
 50
182.1283658634
 51
223.671394236
  0
ARC
  5
2A3
100
AcDbEntity
  8
0
100
AcDbCircle
 62
7
  6
CONTINUOUS
 10
5.6338338606
 20
9.6630972119
 40
0.0404274374
100
AcDbArc
 50
5.0679310865
 51
51.9989485668
  0
ARC
  5
2A4
100
AcDbEntity
  8
0
100
AcDbCircle
 62
7
  6
CONTINUOUS
 10
4.8676615673
 20
9.6636359713
 40
0.0401297476
100
AcDbArc
 50
123.5868955801
 51
175.6662185949
  0
ARC
  5
2A5
100
AcDbEntity
  8
0
100
AcDbCircle
 62
7
  6
CONTINUOUS
 10
7.9859404888
 20
6.2525949464
 40
0.0300074823
100
AcDbArc
 50
41.823824638
 51
115.8501860895
  0
ARC
  5
2A6
100
AcDbEntity
  8
0
100
AcDbCircle
 62
7
  6
CONTINUOUS
 10
6.1358837754
 20
11.4777747625
 40
8.9998883342
100
AcDbArc
 50
271.6499153315
 51
275.4115065746
  0
ARC
  5
2A7
100
AcDbEntity
  8
0
100
AcDbCircle
 62
7
  6
CONTINUOUS
 10
5.1586779511
 20
11.6059144239
 40
2.0335960296
100
AcDbArc
 50
260.4525200033
 51
264.5684900943
  0
ARC
  5
2A8
100
AcDbEntity
  8
0
100
AcDbCircle
 62
7
  6
CONTINUOUS
 10
5.3916727359
 20
11.2571751537
 40
1.6820077531
100
AcDbArc
 50
274.9197020108
 51
285.8556535818
  0
ARC
  5
2A9
100
AcDbEntity
  8
0
100
AcDbCircle
 62
7
  6
CONTINUOUS
 10
5.2505354661
 20
11.2142940436
 40
1.6126486619
100
AcDbArc
 50
82.2439783274
 51
97.9481488408
  0
ARC
  5
2AA
100
AcDbEntity
  8
0
100
AcDbCircle
 62
7
  6
CONTINUOUS
 10
5.3556106669
 20
11.7063528671
 40
1.1115506866
100
AcDbArc
 50
73.2552226866
 51
84.1880464569
  0
ARC
  5
2AB
100
AcDbEntity
  8
0
100
AcDbCircle
 62
7
  6
CONTINUOUS
 10
5.1323493757
 20
11.7656573361
 40
1.0510321685
100
AcDbArc
 50
95.7228829086
 51
106.2982215379
  0
ARC
  5
2AC
100
AcDbEntity
  8
0
100
AcDbCircle
 62
7
  6
CONTINUOUS
 10
5.2509285651
 20
16.2709761732
 40
0.4388091339
100
AcDbArc
 50
9.5088905265
 51
168.5223008142
  0
ARC
  5
2AD
100
AcDbEntity
  8
0
100
AcDbCircle
 62
7
  6
CONTINUOUS
 10
4.9296325931
 20
12.4338475687
 40
0.352874477
100
AcDbArc
 50
105.1531924617
 51
125.4844046961
  0
ARC
  5
2AE
100
AcDbEntity
  8
0
100
AcDbCircle
 62
7
  6
CONTINUOUS
 10
5.5961327771
 20
12.4852437104
 40
0.2964491587
100
AcDbArc
 50
50.0230569296
 51
74.3990826957
  0
ARC
  5
2AF
100
AcDbEntity
  8
0
100
AcDbCircle
 62
7
  6
CONTINUOUS
 10
4.7803020401
 20
12.646347921
 40
0.0931740207
100
AcDbArc
 50
126.5646415521
 51
173.1210500089
  0
ARC
  5
2B0
100
AcDbEntity
  8
0
100
AcDbCircle
 62
7
  6
CONTINUOUS
 10
5.7235483558
 20
12.6456293629
 40
0.0918424861
100
AcDbArc
 50
25.0177911688
 51
46.6488869241
  0
ARC
  5
2B1
100
AcDbEntity
  8
0
100
AcDbCircle
 62
7
  6
CONTINUOUS
 10
5.7425533108
 20
12.6526576831
 40
0.0716677879
100
AcDbArc
 50
1.1204360742
 51
26.3516488444
  0
ARC
  5
2B2
100
AcDbEntity
  8
0
100
AcDbCircle
 62
7
  6
CONTINUOUS
 10
5.7561454152
 20
12.7111539144
 40
0.0572302048
100
AcDbArc
 50
332.2079309494
 51
359.7140177908
  0
ARC
  5
2B3
100
AcDbEntity
  8
0
100
AcDbCircle
 62
7
  6
CONTINUOUS
 10
4.7454413633
 20
12.7111332888
 40
0.0570669652
100
AcDbArc
 50
180.2659783241
 51
208.2002046357
  0
ARC
  5
2B4
100
AcDbEntity
  8
0
100
AcDbCircle
 62
7
  6
CONTINUOUS
 10
18.5614537763
 20
1.7573918607
 40
14.3582522661
100
AcDbArc
 50
169.2769869854
 51
174.3747251043
  0
ARC
  5
2B5
100
AcDbEntity
  8
0
100
AcDbCircle
 62
7
  6
CONTINUOUS
 10
11.6019415921
 20
2.6515648736
 40
7.3475424673
100
AcDbArc
 50
175.9944364869
 51
179.0139460765
  0
ARC
  5
2B6
100
AcDbEntity
  8
0
100
AcDbCircle
 62
7
  6
CONTINUOUS
 10
13.7916505957
 20
2.5700883926
 40
5.8160140848
100
AcDbArc
 50
163.2368490833
 51
179.0907657663
  0
ARC
  5
2B7
100
AcDbEntity
  8
0
100
AcDbCircle
 62
7
  6
CONTINUOUS
 10
23.2694165391
 20
6.6819323251
 40
17.3626053318
100
AcDbArc
 50
183.9562740785
 51
188.254055098
  0
ARC
  5
2B8
100
AcDbEntity
  8
0
100
AcDbCircle
 62
7
  6
CONTINUOUS
 10
17.8272517597
 20
9.1313438261
 40
13.4223408618
100
AcDbArc
 50
171.1258565825
 51
174.4014317437
  0
ARC
  5
2B9
100
AcDbEntity
  8
0
100
AcDbCircle
 62
7
  6
CONTINUOUS
 10
17.4885480396
 20
12.9033758146
 40
11.6770025392
100
AcDbArc
 50
181.2234203283
 51
188.3783212632
  0
ARC
  5
2BA
100
AcDbEntity
  8
0
100
AcDbCircle
 62
7
  6
CONTINUOUS
 10
13.2012255991
 20
9.8317490821
 40
8.7535019997
100
AcDbArc
 50
176.0102459811
 51
180.2090936583
  0
ARC
  5
2BB
100
AcDbEntity
  8
0
100
AcDbCircle
 62
7
  6
CONTINUOUS
 10
62.1866706082
 20
10.7265587907
 40
56.4778825892
100
AcDbArc
 50
181.135296985
 51
185.2356090506
  0
ARC
  5
2BC
100
AcDbEntity
  8
0
100
AcDbCircle
 62
7
  6
CONTINUOUS
 10
49.2524888163
 20
12.9176199573
 40
44.5646137004
100
AcDbArc
 50
175.5719926767
 51
179.7262344366
  0
ENDSEC
  0
SECTION
  2
OBJECTS
  0
DICTIONARY
  5
C
100
AcDbDictionary
280
0
281
1
  3
ACAD_GROUP
350
D
  3
ACAD_MLINESTYLE
350
17
  3
ACAD_LAYOUT
350
1A
  3
ACAD_PLOTSETTINGS
350
19
  3
ACAD_PLOTSTYLENAME
350
E
  0
DICTIONARY
  5
D
102
{ACAD_REACTORS
330
C
102
}
100
AcDbDictionary
280
0
281
1
  0
ACDBDICTIONARYWDFLT
  5
E
102
{ACAD_REACTORS
330
C
102
}
100
AcDbDictionary
281
1
  3
Normal
350
F
100
AcDbDictionaryWithDefault
340
F
  0
DICTIONARY
  5
17
102
{ACAD_REACTORS
330
C
102
}
100
AcDbDictionary
280
0
281
1
  3
Standard
350
18
  0
DICTIONARY
  5
19
102
{ACAD_REACTORS
330
C
102
}
100
AcDbDictionary
281
1
  0
DICTIONARY
  5
1A
102
{ACAD_REACTORS
330
C
102
}
100
AcDbDictionary
281
1
  3
Model
350
2BD
  3
Layout1
350
2BE
  0
ACDBPLACEHOLDER
  5
F
102
{ACAD_REACTORS
330
E
102
}
  0
MLINESTYLE
  5
18
102
{ACAD_REACTORS
330
17
102
}
100
AcDbMlineStyle
  2
STANDARD
 70
0
  3

 62
256
 51
90.0
 52
90.0
 71
2
 49
0.5
 62
256
  6
BYLAYER
 49
-0.5
 62
256
  6
BYLAYER
  0
LAYOUT
  5
2BD
102
{ACAD_REACTORS
330
1A
102
}
100
AcDbPlotSettings
  1

  2
none_device
  4

  6

 40
0.0
 41
0.0
 42
0.0
 43
0.0
 44
266.7444289282
 45
424.4285467999
 46
0.0
 47
0.0
 48
0.0
 49
0.0
140
0.0
141
0.0
142
1.0
143
1.0
 70
1024
 72
0
 73
0
 74
0
  7

 75
0
147
1.0
148
0.0
149
0.0
100
AcDbLayout
  1
Model
 70
0
 71
0
 10
0.0
 20
0.0
 11
10.5017491704
 21
16.7097853071
 12
0.0
 22
0.0
 32
0.0
 14
0.0
 24
0.0
 34
0.0
 15
0.0
 25
0.0
 35
0.0
146
0.0
 13
0.0
 23
0.0
 33
0.0
 16
1.0
 26
0.0
 36
0.0
 17
0.0
 27
1.0
 37
0.0
 76
0
330
201
345
0
346
0
  0
LAYOUT
  5
2BE
102
{ACAD_REACTORS
330
1A
102
}
100
AcDbPlotSettings
  1

  2
none_device
  4

  6

 40
0.0
 41
0.0
 42
0.0
 43
0.0
 44
266.7444289282
 45
424.4285467999
 46
0.0
 47
0.0
 48
0.0
 49
0.0
140
0.0
141
0.0
142
1.0
143
1.0
 70
0
 72
0
 73
0
 74
0
  7

 75
0
147
1.0
148
0.0
149
0.0
100
AcDbLayout
  1
Layout1
 70
0
 71
1
 10
0.0
 20
0.0
 11
10.5017491704
 21
16.7097853071
 12
0.0
 22
0.0
 32
0.0
 14
0.0
 24
0.0
 34
0.0
 15
0.0
 25
0.0
 35
0.0
146
0.0
 13
0.0
 23
0.0
 33
0.0
 16
1.0
 26
0.0
 36
0.0
 17
0.0
 27
1.0
 37
0.0
 76
0
330
202
345
0
346
0
  0
ENDSEC
  0
EOF
