999
DXF file: 22036pln.dxf
999
Pro/ENGINEER 2020454 by Parametric Technology Corporation
  0
SECTION
  2
HEADER
  9
$ACADVER
  1
AC1032
  9
$DWGCODEPAGE
  3
ANSI_936
  9
$EXTMAX
 10
10.4962332271
 20
10.9531794642
 30
0.0
  9
$EXTMIN
 10
0.0
 20
0.0
 30
0.0
  9
$LIMMIN
 10
0.0
 20
0.0
  9
$LIMMAX
 10
10.4962332271
 20
10.9531794642
  9
$VIEWCTR
 10
5.2481166136
 20
5.4765897321
  9
$VIEWSIZE
 40
10.9531794642
  9
$CLAYER
  8
0
  9
$LTSCALE
 40
0.7139850317
  9
$CELTYPE
  6
BYLAYER
  9
$DIMSCALE
 40
1.0
  9
$DIMASZ
 40
4.7625
  9
$DIMEXO
 40
1.0
  9
$DIMDLI
 40
0.4932987492
  9
$DIMEXE
 40
1.5
  9
$DIMCEN
 40
0.1168339143
  9
$DIMLFAC
 40
1.0
  9
$DIMBLK
  1
_FILLED
  9
$DIMALT
 70
0
  9
$DIMALTF
 40
25.4
  9
$DIMTXT
 40
3.96875
  9
$DIMTOL
 70
1
  9
$DIMLIM
 70
0
  9
$DIMTFAC
 40
1.0
  9
$DIMTP
 40
0.01
  9
$DIMTM
 40
0.01
  9
$DIMGAP
 40
0.09
  9
$DIMDSEP
 70
46
  9
$AUNITS
 70
0
  9
$PDMODE
 70
3
  9
$PDSIZE
 40
7.9375
  9
$HANDSEED
  5
28A
  9
$TILEMODE
 70
1
  9
$MEASUREMENT
 70
0
  9
$INSUNITS
 70
1
  0
ENDSEC
  0
SECTION
  2
CLASSES
  0
CLASS
  1
ACDBDICTIONARYWDFLT
  2
AcDbDictionaryWithDefault
  3
AutoCAD 2000
 90
0
 91
1
280
0
281
0
  0
CLASS
  1
ACDBPLACEHOLDER
  2
AcDbPlaceHolder
  3
AutoCAD 2000
 90
0
 91
1
280
0
281
0
  0
CLASS
  1
LAYOUT
  2
AcDbLayout
  3
AutoCAD 2000
 90
0
 91
0
280
0
281
0
  0
ENDSEC
  0
SECTION
  2
TABLES
  0
TABLE
  2
VPORT
  5
8
100
AcDbSymbolTable
 70
2
  0
VPORT
  5
1F4
100
AcDbSymbolTableRecord
100
AcDbViewportTableRecord
  2
*ACTIVE
 70
0
 10
0.0
 20
0.0
 11
1.0
 21
1.0
 12
5.2481166136
 22
5.4765897321
 13
0.0
 23
0.0
 14
1.0
 24
1.0
 15
0.0
 25
0.0
 16
0.0
 26
0.0
 36
1.0
 17
0.0
 27
0.0
 37
0.0
 40
10.9531794642
 41
0.9582818634
 42
50.0
 43
0.0
 44
0.0
 50
0.0
 51
0.0
 71
0
 72
100
 73
1
 74
1
 75
0
 76
0
 77
0
 78
0
  0
ENDTAB
  0
TABLE
  2
LTYPE
  5
5
100
AcDbSymbolTable
 70
6
  0
LTYPE
  5
14
100
AcDbSymbolTableRecord
100
AcDbLinetypeTableRecord
  2
BYBLOCK
 70
0
  3

 72
65
 73
0
 40
0.0
  0
LTYPE
  5
15
100
AcDbSymbolTableRecord
100
AcDbLinetypeTableRecord
  2
BYLAYER
 70
0
  3

 72
65
 73
0
 40
0.0
  0
LTYPE
  5
16
100
AcDbSymbolTableRecord
100
AcDbLinetypeTableRecord
  2
CONTINUOUS
 70
64
  3
Solid line
 72
65
 73
0
 40
0.0
  0
LTYPE
  5
1F5
100
AcDbSymbolTableRecord
100
AcDbLinetypeTableRecord
  2
CENTER
 70
64
  3
____ _ ____ _ ____ _ ____ _ ____ _ ____ _ ____
 72
65
 73
4
 40
0.6
 49
0.375
 74
0
 49
-0.075
 74
0
 49
0.075
 74
0
 49
-0.075
 74
0
  0
LTYPE
  5
1F6
100
AcDbSymbolTableRecord
100
AcDbLinetypeTableRecord
  2
HIDDEN
 70
64
  3
- - - - - - - - - - - - - - - - - - - -
 72
65
 73
2
 40
0.2
 49
0.1
 74
0
 49
-0.1
 74
0
  0
LTYPE
  5
1F7
100
AcDbSymbolTableRecord
100
AcDbLinetypeTableRecord
  2
PHANTOM
 70
64
  3
_____ _ _ _____ _ _ _____ _ _ _____
 72
65
 73
6
 40
0.8
 49
0.45
 74
0
 49
-0.05
 74
0
 49
0.1
 74
0
 49
-0.05
 74
0
 49
0.1
 74
0
 49
-0.05
 74
0
  0
LTYPE
  5
1F8
100
AcDbSymbolTableRecord
100
AcDbLinetypeTableRecord
  2
DOT
 70
64
  3
. . . . . . . . . . . . . . . . . . . .
 72
65
 73
2
 40
0.2
 49
0.1
 74
0
 49
-0.1
 74
0
  0
LTYPE
  5
1F9
100
AcDbSymbolTableRecord
100
AcDbLinetypeTableRecord
  2
DASHED
 70
64
  3
- - - - - - - - - - - - - - - - - - - -
 72
65
 73
2
 40
0.2
 49
0.1
 74
0
 49
-0.1
 74
0
  0
ENDTAB
  0
TABLE
  2
LAYER
  5
2
100
AcDbSymbolTable
 70
36
  0
LAYER
  5
10
100
AcDbSymbolTableRecord
100
AcDbLayerTableRecord
  2
0
 70
0
 62
7
  6
CONTINUOUS
370
-3
390
F
  0
LAYER
  5
1FA
100
AcDbSymbolTableRecord
100
AcDbLayerTableRecord
  2
DEFAULT_1
 70
0
 62
7
  6
CENTER
370
-3
390
F
  0
LAYER
  5
1FB
100
AcDbSymbolTableRecord
100
AcDbLayerTableRecord
  2
DEFAULT_2
 70
0
 62
8
  6
HIDDEN
370
-3
390
F
  0
LAYER
  5
1FC
100
AcDbSymbolTableRecord
100
AcDbLayerTableRecord
  2
DEFAULT_3
 70
0
 62
7
  6
PHANTOM
370
-3
390
F
  0
LAYER
  5
1FD
100
AcDbSymbolTableRecord
100
AcDbLayerTableRecord
  2
Defpoints
 70
0
 62
7
  6
CONTINUOUS
290
0
370
-3
390
F
  0
LAYER
  5
1FE
100
AcDbSymbolTableRecord
100
AcDbLayerTableRecord
  2
___NOTE
 70
0
 62
7
  6
CONTINUOUS
370
-3
390
F
  0
ENDTAB
  0
TABLE
  2
STYLE
  5
3
100
AcDbSymbolTable
 70
1
  0
STYLE
  5
11
100
AcDbSymbolTableRecord
100
AcDbTextStyleTableRecord
  2
STANDARD
 70
0
 40
0.0
 41
0.8
 50
0.0
 71
0
 42
0.2
  3
txt
  4

  0
STYLE
  5
1FF
100
AcDbSymbolTableRecord
100
AcDbTextStyleTableRecord
  2
TEXTSTYLE_1
 70
0
 40
0.0
 41
0.8
 50
0.0
 71
0
 42
0.2
  3
gdt
  4

  0
ENDTAB
  0
TABLE
  2
VIEW
  5
6
100
AcDbSymbolTable
 70
0
  0
ENDTAB
  0
TABLE
  2
UCS
  5
7
100
AcDbSymbolTable
 70
0
  0
ENDTAB
  0
TABLE
  2
APPID
  5
9
100
AcDbSymbolTable
 70
1
  0
APPID
  5
200
100
AcDbSymbolTableRecord
100
AcDbRegAppTableRecord
  2
ACAD
 70
0
  0
ENDTAB
  0
TABLE
  2
BLOCK_RECORD
  5
1
100
AcDbSymbolTable
 70
0
  0
BLOCK_RECORD
  5
201
100
AcDbSymbolTableRecord
100
AcDbBlockTableRecord
  2
*Model_Space
  0
BLOCK_RECORD
  5
202
100
AcDbSymbolTableRecord
100
AcDbBlockTableRecord
  2
*Paper_Space
  0
BLOCK_RECORD
  5
203
100
AcDbSymbolTableRecord
100
AcDbBlockTableRecord
  2
_FILLED
  0
ENDTAB
  0
TABLE
  2
DIMSTYLE
  5
A
100
AcDbSymbolTable
 70
1
100
AcDbDimStyleTable
 71
0
  0
DIMSTYLE
105
204
100
AcDbSymbolTableRecord
100
AcDbDimStyleTableRecord
  2
STANDARD
 70
0
  3

  4

 40
1.0
 41
4.7625
 42
1.0
 43
0.38
 44
1.5
 45
0.0
 46
0.0
 47
0.01
 48
0.01
140
3.96875
141
0.09
142
0.0
143
25.4
144
1.0
145
0.0
146
1.0
147
0.09
 71
1
 72
0
 73
1
 74
1
 75
0
 76
0
 77
0
 78
8
 79
2
170
0
171
2
172
0
173
0
174
0
175
0
176
0
177
0
178
0
270
2
179
3
271
3
272
3
273
2
274
2
275
0
280
0
281
0
282
0
283
1
284
8
285
0
286
0
287
3
288
0
340
11
278
46
341
203
342
203
343
203
344
203
  0
ENDTAB
  0
ENDSEC
  0
SECTION
  2
BLOCKS
  0
BLOCK
  5
20
100
AcDbEntity
  8
0
100
AcDbBlockBegin
  2
*Model_Space
 70
0
 10
0.0
 20
0.0
 30
0.0
  3
*Model_Space
  1

  0
ENDBLK
  5
21
100
AcDbEntity
  8
0
100
AcDbBlockEnd
  0
BLOCK
  5
1C
100
AcDbEntity
  8
0
100
AcDbBlockBegin
  2
*Paper_Space
 70
0
 10
0.0
 20
0.0
 30
0.0
  3
*Paper_Space
  1

  0
ENDBLK
  5
1D
100
AcDbEntity
  8
0
100
AcDbBlockEnd
  0
BLOCK
  5
205
100
AcDbEntity
  8
0
100
AcDbBlockBegin
  2
_FILLED
 70
64
 10
0.0
 20
0.0
  3
_FILLED
  1

  0
SOLID
  5
206
100
AcDbEntity
  8
0
  6
BYBLOCK
 62
0
100
AcDbTrace
 10
0.0
 20
0.0
 11
-1.0
 21
0.1666666667
 12
-1.0
 22
-0.1666666667
 13
-1.0
 23
-0.1666666667
  0
ENDBLK
  5
207
100
AcDbEntity
  8
0
  6
BYBLOCK
 62
0
100
AcDbBlockEnd
  0
ENDSEC
  0
SECTION
  2
ENTITIES
  0
LINE
  5
208
100
AcDbEntity
  8
0
100
AcDbLine
 62
7
  6
CONTINUOUS
 10
0.0
 20
0.0
 11
10.4962332271
 21
0.0
  0
LINE
  5
209
100
AcDbEntity
  8
0
100
AcDbLine
 62
7
  6
CONTINUOUS
 10
0.0
 20
0.0
 11
0.0
 21
10.9531794642
  0
LWPOLYLINE
  5
20A
100
AcDbEntity
  8
Defpoints
100
AcDbPolyline
 62
7
  6
CONTINUOUS
 90
4
 70
0
 43
0.381000012
 10
5.2460803237
 20
9.7114308829
 10
5.24598049
 20
9.7113468958
 10
5.2458802602
 20
9.7113468958
 10
5.2457804265
 20
9.7114308829
  0
LWPOLYLINE
  5
20B
100
AcDbEntity
  8
Defpoints
100
AcDbPolyline
 62
7
  6
CONTINUOUS
 90
4
 70
0
 43
0.381000012
 10
5.2468805777
 20
9.7080975477
 10
5.2467803479
 20
9.7080135606
 10
5.2466805142
 20
9.7080135606
 10
5.2465802844
 20
9.7080975477
  0
LWPOLYLINE
  5
20C
100
AcDbEntity
  8
Defpoints
100
AcDbPolyline
 62
7
  6
CONTINUOUS
 90
6
 70
0
 43
0.381000012
 10
5.2456805929
 20
9.712097233
 10
5.2457804265
 20
9.7122636225
 10
5.2458802602
 20
9.7123476095
 10
5.24598049
 20
9.7123476095
 10
5.2460803237
 20
9.7122636225
 10
5.2461805535
 20
9.712097233
  0
LWPOLYLINE
  5
20D
100
AcDbEntity
  8
Defpoints
100
AcDbPolyline
 62
7
  6
CONTINUOUS
 90
5
 70
0
 43
0.381000012
 10
5.2464804507
 20
9.7087638978
 10
5.2465802844
 20
9.7089302872
 10
5.2466805142
 20
9.7090142743
 10
5.2467803479
 20
9.7090142743
 10
5.2468805777
 20
9.7089302872
  0
LWPOLYLINE
  5
20E
100
AcDbEntity
  8
Defpoints
100
AcDbPolyline
 62
7
  6
CONTINUOUS
 90
5
 70
0
 43
0.381000012
 10
5.2477303524
 20
9.7099302086
 10
5.2476305187
 20
9.7097638191
 10
5.2475302889
 20
9.7096806244
 10
5.2473302254
 20
9.7096806244
 10
5.2473302254
 20
9.7106805457
  0
LWPOLYLINE
  5
20F
100
AcDbEntity
  8
Defpoints
100
AcDbPolyline
 62
7
  6
CONTINUOUS
 90
5
 70
0
 43
0.381000012
 10
5.2477303524
 20
9.7082639371
 10
5.2476305187
 20
9.7080975477
 10
5.2475302889
 20
9.7080135606
 10
5.2473302254
 20
9.7080135606
 10
5.2473302254
 20
9.7090142743
  0
LWPOLYLINE
  5
210
100
AcDbEntity
  8
Defpoints
100
AcDbPolyline
 62
7
  6
CONTINUOUS
 90
6
 70
0
 43
0.381000012
 10
5.2488804203
 20
9.7087638978
 10
5.248980254
 20
9.7089302872
 10
5.2490804838
 20
9.7090142743
 10
5.2491803175
 20
9.7090142743
 10
5.2492805473
 20
9.7089302872
 10
5.2493304642
 20
9.7088470925
  0
LWPOLYLINE
  5
211
100
AcDbEntity
  8
Defpoints
100
AcDbPolyline
 62
7
  6
CONTINUOUS
 90
5
 70
0
 43
0.381000012
 10
5.2493304642
 20
9.7081807424
 10
5.2492805473
 20
9.7080975477
 10
5.2491803175
 20
9.7080135606
 10
5.2490804838
 20
9.7080135606
 10
5.248980254
 20
9.7080975477
  0
LWPOLYLINE
  5
212
100
AcDbEntity
  8
Defpoints
100
AcDbPolyline
 62
7
  6
CONTINUOUS
 90
9
 70
0
 43
0.381000012
 10
5.251630204
 20
9.7113468958
 10
5.2517304338
 20
9.7115140776
 10
5.2517304338
 20
9.7117636618
 10
5.251680517
 20
9.7118476488
 10
5.251630204
 20
9.7119308436
 10
5.251680517
 20
9.7120140383
 10
5.251680517
 20
9.7122636225
 10
5.251630204
 20
9.7123476095
 10
5.25128039
 20
9.7123476095
  0
LWPOLYLINE
  5
213
100
AcDbEntity
  8
Defpoints
100
AcDbPolyline
 62
7
  6
CONTINUOUS
 90
5
 70
0
 43
0.381000012
 10
5.2469304945
 20
9.7115972723
 10
5.2468302647
 20
9.7114308829
 10
5.246730431
 20
9.7113468958
 10
5.2465303675
 20
9.7113468958
 10
5.2465303675
 20
9.7123476095
  0
LWPOLYLINE
  5
214
100
AcDbEntity
  8
Defpoints
100
AcDbPolyline
 62
7
  6
CONTINUOUS
 90
3
 70
0
 43
0.381000012
 10
5.2464804507
 20
9.7096806244
 10
5.246730431
 20
9.7106805457
 10
5.2469804114
 20
9.7096806244
  0
LWPOLYLINE
  5
215
100
AcDbEntity
  8
Defpoints
100
AcDbPolyline
 62
7
  6
CONTINUOUS
 90
3
 70
0
 43
0.381000012
 10
5.2456805929
 20
9.7063472892
 10
5.2459305732
 20
9.7073472105
 10
5.2461805535
 20
9.7063472892
  0
LWPOLYLINE
  5
216
100
AcDbEntity
  8
Defpoints
100
AcDbPolyline
 62
7
  6
CONTINUOUS
 90
3
 70
0
 43
0.381000012
 10
5.2496802782
 20
9.7096806244
 10
5.2499302585
 20
9.7106805457
 10
5.2501802388
 20
9.7096806244
  0
LWPOLYLINE
  5
217
100
AcDbEntity
  8
Defpoints
100
AcDbPolyline
 62
7
  6
CONTINUOUS
 90
3
 70
0
 43
0.381000012
 10
5.2496802782
 20
9.7063472892
 10
5.2499302585
 20
9.7073472105
 10
5.2501802388
 20
9.7063472892
  0
LINE
  5
218
100
AcDbEntity
  8
0
100
AcDbLine
 62
7
  6
CONTINUOUS
 10
4.802540342
 20
5.009215561
 11
4.7765141295
 21
9.7310342191
  0
LWPOLYLINE
  5
219
100
AcDbEntity
  8
Defpoints
100
AcDbPolyline
 62
7
  6
CONTINUOUS
 90
5
 70
0
 43
0.381000012
 10
5.2448803389
 20
9.7063472892
 10
5.2448803389
 20
9.7073472105
 10
5.2451303192
 20
9.7065136786
 10
5.2453802995
 20
9.7073472105
 10
5.2453802995
 20
9.7063472892
  0
LWPOLYLINE
  5
21A
100
AcDbEntity
  8
Defpoints
100
AcDbPolyline
 62
7
  6
CONTINUOUS
 90
5
 70
0
 43
0.381000012
 10
5.2448803389
 20
9.7113468958
 10
5.2448803389
 20
9.7123476095
 10
5.2451303192
 20
9.7115140776
 10
5.2453802995
 20
9.7123476095
 10
5.2453802995
 20
9.7113468958
  0
LWPOLYLINE
  5
21B
100
AcDbEntity
  8
Defpoints
100
AcDbPolyline
 62
7
  6
CONTINUOUS
 90
9
 70
0
 43
0.381000012
 10
5.2449302557
 20
9.7080135606
 10
5.2449302557
 20
9.7090142743
 10
5.245180236
 20
9.7090142743
 10
5.2452804659
 20
9.7089302872
 10
5.2453303827
 20
9.7088470925
 10
5.2453303827
 20
9.7086807031
 10
5.2452804659
 20
9.7085975083
 10
5.245180236
 20
9.7085143136
 10
5.2449302557
 20
9.7085143136
  0
LWPOLYLINE
  5
21C
100
AcDbEntity
  8
Defpoints
100
AcDbPolyline
 62
7
  6
CONTINUOUS
 90
2
 70
0
 43
0.381000012
 10
5.2451303192
 20
9.7106805457
 10
5.2451303192
 20
9.7096806244
  0
LWPOLYLINE
  5
21D
100
AcDbEntity
  8
Defpoints
100
AcDbPolyline
 62
7
  6
CONTINUOUS
 90
9
 70
0
 43
0.381000012
 10
5.2457305097
 20
9.7080135606
 10
5.2457305097
 20
9.7090142743
 10
5.24598049
 20
9.7090142743
 10
5.2460803237
 20
9.7089302872
 10
5.2461302405
 20
9.7088470925
 10
5.2461302405
 20
9.7086807031
 10
5.2460803237
 20
9.7085975083
 10
5.24598049
 20
9.7085143136
 10
5.2457305097
 20
9.7085143136
  0
LWPOLYLINE
  5
21E
100
AcDbEntity
  8
Defpoints
100
AcDbPolyline
 62
7
  6
CONTINUOUS
 90
9
 70
0
 43
0.381000012
 10
5.2457305097
 20
9.7096806244
 10
5.2457305097
 20
9.7106805457
 10
5.24598049
 20
9.7106805457
 10
5.2460803237
 20
9.710597351
 10
5.2461302405
 20
9.7105141563
 10
5.2461302405
 20
9.7103469745
 10
5.2460803237
 20
9.7102637798
 10
5.24598049
 20
9.7101805851
 10
5.2457305097
 20
9.7101805851
  0
LWPOLYLINE
  5
21F
100
AcDbEntity
  8
Defpoints
100
AcDbPolyline
 62
7
  6
CONTINUOUS
 90
2
 70
0
 43
0.381000012
 10
5.246730431
 20
9.7073472105
 10
5.246730431
 20
9.7063472892
  0
LWPOLYLINE
  5
220
100
AcDbEntity
  8
Defpoints
100
AcDbPolyline
 62
7
  6
CONTINUOUS
 90
3
 70
0
 43
0.381000012
 10
5.2481304793
 20
9.7123476095
 10
5.2481304793
 20
9.7113468958
 10
5.2485302102
 20
9.7113468958
  0
LWPOLYLINE
  5
221
100
AcDbEntity
  8
Defpoints
100
AcDbPolyline
 62
7
  6
CONTINUOUS
 90
9
 70
0
 43
0.381000012
 10
5.2481304793
 20
9.7063472892
 10
5.2481304793
 20
9.7073472105
 10
5.2483804597
 20
9.7073472105
 10
5.2484802933
 20
9.7072640158
 10
5.2485302102
 20
9.7071808211
 10
5.2485302102
 20
9.7070136393
 10
5.2484802933
 20
9.7069304446
 10
5.2483804597
 20
9.7068472499
 10
5.2481304793
 20
9.7068472499
  0
LWPOLYLINE
  5
222
100
AcDbEntity
  8
Defpoints
100
AcDbPolyline
 62
7
  6
CONTINUOUS
 90
8
 70
0
 43
0.381000012
 10
5.2485302102
 20
9.7090142743
 10
5.2485302102
 20
9.7081807424
 10
5.2484802933
 20
9.7080975477
 10
5.2483804597
 20
9.7080135606
 10
5.2482802298
 20
9.7080135606
 10
5.2481803962
 20
9.7080975477
 10
5.2481304793
 20
9.7081807424
 10
5.2481304793
 20
9.7090142743
  0
LWPOLYLINE
  5
223
100
AcDbEntity
  8
Defpoints
100
AcDbPolyline
 62
7
  6
CONTINUOUS
 90
4
 70
0
 43
0.381000012
 10
5.2489303372
 20
9.7096806244
 10
5.2489303372
 20
9.7106805457
 10
5.2493304642
 20
9.7096806244
 10
5.2493304642
 20
9.7106805457
  0
LWPOLYLINE
  5
224
100
AcDbEntity
  8
Defpoints
100
AcDbPolyline
 62
7
  6
CONTINUOUS
 90
4
 70
0
 43
0.381000012
 10
5.2489303372
 20
9.7113468958
 10
5.2489303372
 20
9.7123476095
 10
5.2493304642
 20
9.7113468958
 10
5.2493304642
 20
9.7123476095
  0
LWPOLYLINE
  5
225
100
AcDbEntity
  8
Defpoints
100
AcDbPolyline
 62
7
  6
CONTINUOUS
 90
2
 70
0
 43
0.381000012
 10
5.2491304007
 20
9.7073472105
 10
5.2491304007
 20
9.7063472892
  0
LWPOLYLINE
  5
226
100
AcDbEntity
  8
Defpoints
100
AcDbPolyline
 62
7
  6
CONTINUOUS
 90
2
 70
0
 43
0.381000012
 10
5.2499302585
 20
9.7090142743
 10
5.2499302585
 20
9.7080135606
  0
LWPOLYLINE
  5
227
100
AcDbEntity
  8
Defpoints
100
AcDbPolyline
 62
7
  6
CONTINUOUS
 90
8
 70
0
 43
0.381000012
 10
5.250130322
 20
9.7123476095
 10
5.250130322
 20
9.7115140776
 10
5.2500804052
 20
9.7114308829
 10
5.2499805715
 20
9.7113468958
 10
5.2498803417
 20
9.7113468958
 10
5.249780508
 20
9.7114308829
 10
5.2497305912
 20
9.7115140776
 10
5.2497305912
 20
9.7123476095
  0
LWPOLYLINE
  5
228
100
AcDbEntity
  8
Defpoints
100
AcDbPolyline
 62
7
  6
CONTINUOUS
 90
5
 70
0
 43
0.381000012
 10
5.2504805322
 20
9.7096806244
 10
5.2504805322
 20
9.7106805457
 10
5.2507305125
 20
9.7098470138
 10
5.2509804928
 20
9.7106805457
 10
5.2509804928
 20
9.7096806244
  0
LWPOLYLINE
  5
229
100
AcDbEntity
  8
Defpoints
100
AcDbPolyline
 62
7
  6
CONTINUOUS
 90
5
 70
0
 43
0.381000012
 10
5.2504805322
 20
9.7113468958
 10
5.2504805322
 20
9.7123476095
 10
5.2507305125
 20
9.7115140776
 10
5.2509804928
 20
9.7123476095
 10
5.2509804928
 20
9.7113468958
  0
LWPOLYLINE
  5
22A
100
AcDbEntity
  8
Defpoints
100
AcDbPolyline
 62
7
  6
CONTINUOUS
 90
3
 70
0
 43
0.381000012
 10
5.250530449
 20
9.7073472105
 10
5.250530449
 20
9.7063472892
 10
5.250930576
 20
9.7063472892
  0
LWPOLYLINE
  5
22B
100
AcDbEntity
  8
Defpoints
100
AcDbPolyline
 62
7
  6
CONTINUOUS
 90
3
 70
0
 43
0.381000012
 10
5.25128039
 20
9.7123476095
 10
5.25128039
 20
9.7113468958
 10
5.251630204
 20
9.7113468958
  0
LWPOLYLINE
  5
22C
100
AcDbEntity
  8
Defpoints
100
AcDbPolyline
 62
7
  6
CONTINUOUS
 90
9
 70
0
 43
0.381000012
 10
5.2529304187
 20
9.7113468958
 10
5.2529304187
 20
9.7123476095
 10
5.253180399
 20
9.7123476095
 10
5.2532802327
 20
9.7122636225
 10
5.2533305457
 20
9.7121804277
 10
5.2533305457
 20
9.7120140383
 10
5.2532802327
 20
9.7119308436
 10
5.253180399
 20
9.7118476488
 10
5.2529304187
 20
9.7118476488
  0
LINE
  5
22D
100
AcDbEntity
  8
0
100
AcDbLine
 62
7
  6
CONTINUOUS
 10
5.6881730373
 20
5.0092374035
 11
5.7391850357
 21
2.9688058726
  0
LINE
  5
22E
100
AcDbEntity
  8
0
100
AcDbLine
 62
7
  6
CONTINUOUS
 10
5.7141020286
 20
9.7277235193
 11
5.6881730373
 21
5.0092374035
  0
LWPOLYLINE
  5
22F
100
AcDbEntity
  8
Defpoints
100
AcDbPolyline
 62
7
  6
CONTINUOUS
 90
4
 70
0
 43
0.381000012
 10
5.2461805535
 20
9.712097233
 10
5.2462304704
 20
9.7118476488
 10
5.2461805535
 20
9.7115972723
 10
5.2460803237
 20
9.7114308829
  0
LWPOLYLINE
  5
230
100
AcDbEntity
  8
Defpoints
100
AcDbPolyline
 62
7
  6
CONTINUOUS
 90
2
 70
0
 43
0.381000012
 10
5.253180399
 20
9.7118476488
 10
5.2533305457
 20
9.7113468958
  0
LWPOLYLINE
  5
231
100
AcDbEntity
  8
Defpoints
100
AcDbPolyline
 62
7
  6
CONTINUOUS
 90
2
 70
0
 43
0.381000012
 10
5.24598049
 20
9.7101805851
 10
5.2461302405
 20
9.7096806244
  0
LWPOLYLINE
  5
232
100
AcDbEntity
  8
Defpoints
100
AcDbPolyline
 62
7
  6
CONTINUOUS
 90
2
 70
0
 43
0.381000012
 10
5.2483804597
 20
9.7068472499
 10
5.2485302102
 20
9.7063472892
  0
LWPOLYLINE
  5
233
100
AcDbEntity
  8
Defpoints
100
AcDbPolyline
 62
7
  6
CONTINUOUS
 90
2
 70
0
 43
0.381000012
 10
5.24598049
 20
9.7085143136
 10
5.2461302405
 20
9.7080135606
  0
LINE
  5
234
100
AcDbEntity
  8
0
100
AcDbLine
 62
7
  6
CONTINUOUS
 10
7.015356809
 20
10.4147700082
 11
7.015356809
 21
8.9894951063
  0
LINE
  5
235
100
AcDbEntity
  8
0
100
AcDbLine
 62
7
  6
CONTINUOUS
 10
7.0660135219
 20
10.3603290967
 11
7.0656910194
 21
9.0515045016
  0
LWPOLYLINE
  5
236
100
AcDbEntity
  8
Defpoints
100
AcDbPolyline
 62
7
  6
CONTINUOUS
 90
4
 70
0
 43
0.381000012
 10
5.2465802844
 20
9.7080975477
 10
5.2464804507
 20
9.7082639371
 10
5.2464305339
 20
9.7085143136
 10
5.2464804507
 20
9.7087638978
  0
LWPOLYLINE
  5
237
100
AcDbEntity
  8
Defpoints
100
AcDbPolyline
 62
7
  6
CONTINUOUS
 90
5
 70
0
 43
0.381000012
 10
5.2468805777
 20
9.7089302872
 10
5.2469804114
 20
9.7087638978
 10
5.2470303282
 20
9.7085143136
 10
5.2469804114
 20
9.7082639371
 10
5.2468805777
 20
9.7080975477
  0
LWPOLYLINE
  5
238
100
AcDbEntity
  8
Defpoints
100
AcDbPolyline
 62
7
  6
CONTINUOUS
 90
4
 70
0
 43
0.381000012
 10
5.2457804265
 20
9.7114308829
 10
5.2456805929
 20
9.7115972723
 10
5.2456302799
 20
9.7118476488
 10
5.2456805929
 20
9.712097233
  0
LWPOLYLINE
  5
239
100
AcDbEntity
  8
Defpoints
100
AcDbPolyline
 62
7
  6
CONTINUOUS
 90
4
 70
0
 43
0.381000012
 10
5.2476305187
 20
9.7089302872
 10
5.2477303524
 20
9.7087638978
 10
5.2477802692
 20
9.7085143136
 10
5.2477303524
 20
9.7082639371
  0
LWPOLYLINE
  5
23A
100
AcDbEntity
  8
Defpoints
100
AcDbPolyline
 62
7
  6
CONTINUOUS
 90
4
 70
0
 43
0.381000012
 10
5.248980254
 20
9.7080975477
 10
5.2488804203
 20
9.7082639371
 10
5.2488305035
 20
9.7085143136
 10
5.2488804203
 20
9.7087638978
  0
LWPOLYLINE
  5
23B
100
AcDbEntity
  8
Defpoints
100
AcDbPolyline
 62
7
  6
CONTINUOUS
 90
4
 70
0
 43
0.381000012
 10
5.2476305187
 20
9.710597351
 10
5.2477303524
 20
9.7104309616
 10
5.2477802692
 20
9.7101805851
 10
5.2477303524
 20
9.7099302086
  0
LWPOLYLINE
  5
23C
100
AcDbEntity
  8
Defpoints
100
AcDbPolyline
 62
7
  6
CONTINUOUS
 90
4
 70
0
 43
0.381000012
 10
5.2468302647
 20
9.7122636225
 10
5.2469304945
 20
9.712097233
 10
5.2469804114
 20
9.7118476488
 10
5.2469304945
 20
9.7115972723
  0
LINE
  5
23D
100
AcDbEntity
  8
0
100
AcDbLine
 62
7
  6
CONTINUOUS
 10
8.0051265488
 20
9.8120271663
 11
8.0047225877
 21
9.5982074694
  0
LINE
  5
23E
100
AcDbEntity
  8
0
100
AcDbLine
 62
7
  6
CONTINUOUS
 10
1.2453436024
 20
8.4531791664
 11
4.7835575442
 21
8.4531791664
  0
LINE
  5
23F
100
AcDbEntity
  8
0
100
AcDbLine
 62
7
  6
CONTINUOUS
 10
5.7070981615
 20
8.4531791664
 11
9.2453710444
 21
8.4531791664
  0
LINE
  5
240
100
AcDbEntity
  8
0
100
AcDbLine
 62
7
  6
CONTINUOUS
 10
7.0153643547
 20
9.0382334798
 11
7.0658164903
 21
9.0459920055
  0
LINE
  5
241
100
AcDbEntity
  8
0
100
AcDbLine
 62
7
  6
CONTINUOUS
 10
7.1277147139
 20
8.9685611457
 11
7.9680087028
 21
9.0406251539
  0
LWPOLYLINE
  5
242
100
AcDbEntity
  8
Defpoints
100
AcDbPolyline
 62
7
  6
CONTINUOUS
 90
4
 70
0
 43
0.381000012
 10
5.2477303524
 20
9.7063472892
 10
5.2473302254
 20
9.7063472892
 10
5.2473302254
 20
9.7073472105
 10
5.2477303524
 20
9.7073472105
  0
LWPOLYLINE
  5
243
100
AcDbEntity
  8
Defpoints
100
AcDbPolyline
 62
7
  6
CONTINUOUS
 90
2
 70
0
 43
0.381000012
 10
5.2457804265
 20
9.7066808604
 10
5.2460803237
 20
9.7066808604
  0
LWPOLYLINE
  5
244
100
AcDbEntity
  8
Defpoints
100
AcDbPolyline
 62
7
  6
CONTINUOUS
 90
2
 70
0
 43
0.381000012
 10
5.249780508
 20
9.7066808604
 10
5.2500804052
 20
9.7066808604
  0
LWPOLYLINE
  5
245
100
AcDbEntity
  8
Defpoints
100
AcDbPolyline
 62
7
  6
CONTINUOUS
 90
2
 70
0
 43
0.381000012
 10
5.2473302254
 20
9.7068472499
 10
5.2475802057
 20
9.7068472499
  0
LWPOLYLINE
  5
246
100
AcDbEntity
  8
Defpoints
100
AcDbPolyline
 62
7
  6
CONTINUOUS
 90
2
 70
0
 43
0.381000012
 10
5.2464804507
 20
9.7073472105
 10
5.2469804114
 20
9.7073472105
  0
LWPOLYLINE
  5
247
100
AcDbEntity
  8
Defpoints
100
AcDbPolyline
 62
7
  6
CONTINUOUS
 90
3
 70
0
 43
0.381000012
 10
5.2473302254
 20
9.7090142743
 10
5.2475302889
 20
9.7090142743
 10
5.2476305187
 20
9.7089302872
  0
LWPOLYLINE
  5
248
100
AcDbEntity
  8
Defpoints
100
AcDbPolyline
 62
7
  6
CONTINUOUS
 90
2
 70
0
 43
0.381000012
 10
5.2496802782
 20
9.7090142743
 10
5.2501802388
 20
9.7090142743
  0
LWPOLYLINE
  5
249
100
AcDbEntity
  8
Defpoints
100
AcDbPolyline
 62
7
  6
CONTINUOUS
 90
4
 70
0
 43
0.381000012
 10
5.2485302102
 20
9.7096806244
 10
5.2481304793
 20
9.7096806244
 10
5.2481304793
 20
9.7106805457
 10
5.2485302102
 20
9.7106805457
  0
LWPOLYLINE
  5
24A
100
AcDbEntity
  8
Defpoints
100
AcDbPolyline
 62
7
  6
CONTINUOUS
 90
4
 70
0
 43
0.381000012
 10
5.2517304338
 20
9.7096806244
 10
5.2513303068
 20
9.7096806244
 10
5.2513303068
 20
9.7106805457
 10
5.2517304338
 20
9.7106805457
  0
LWPOLYLINE
  5
24B
100
AcDbEntity
  8
Defpoints
100
AcDbPolyline
 62
7
  6
CONTINUOUS
 90
2
 70
0
 43
0.381000012
 10
5.2465802844
 20
9.7100141956
 10
5.2468805777
 20
9.7100141956
  0
LWPOLYLINE
  5
24C
100
AcDbEntity
  8
Defpoints
100
AcDbPolyline
 62
7
  6
CONTINUOUS
 90
2
 70
0
 43
0.381000012
 10
5.249780508
 20
9.7100141956
 10
5.2500804052
 20
9.7100141956
  0
LWPOLYLINE
  5
24D
100
AcDbEntity
  8
Defpoints
100
AcDbPolyline
 62
7
  6
CONTINUOUS
 90
2
 70
0
 43
0.381000012
 10
5.2481304793
 20
9.7101805851
 10
5.2483804597
 20
9.7101805851
  0
LWPOLYLINE
  5
24E
100
AcDbEntity
  8
Defpoints
100
AcDbPolyline
 62
7
  6
CONTINUOUS
 90
2
 70
0
 43
0.381000012
 10
5.2513303068
 20
9.7101805851
 10
5.2515802872
 20
9.7101805851
  0
LWPOLYLINE
  5
24F
100
AcDbEntity
  8
Defpoints
100
AcDbPolyline
 62
7
  6
CONTINUOUS
 90
2
 70
0
 43
0.381000012
 10
5.2448803389
 20
9.7106805457
 10
5.2453802995
 20
9.7106805457
  0
LWPOLYLINE
  5
250
100
AcDbEntity
  8
Defpoints
100
AcDbPolyline
 62
7
  6
CONTINUOUS
 90
3
 70
0
 43
0.381000012
 10
5.2473302254
 20
9.7106805457
 10
5.2475302889
 20
9.7106805457
 10
5.2476305187
 20
9.710597351
  0
LWPOLYLINE
  5
251
100
AcDbEntity
  8
Defpoints
100
AcDbPolyline
 62
7
  6
CONTINUOUS
 90
4
 70
0
 43
0.381000012
 10
5.2525302917
 20
9.7113468958
 10
5.2521305608
 20
9.7113468958
 10
5.2521305608
 20
9.7123476095
 10
5.2525302917
 20
9.7123476095
  0
LWPOLYLINE
  5
252
100
AcDbEntity
  8
Defpoints
100
AcDbPolyline
 62
7
  6
CONTINUOUS
 90
4
 70
0
 43
0.381000012
 10
5.2477303524
 20
9.7113468958
 10
5.2473302254
 20
9.7113468958
 10
5.2473302254
 20
9.7123476095
 10
5.2477303524
 20
9.7123476095
  0
LWPOLYLINE
  5
253
100
AcDbEntity
  8
Defpoints
100
AcDbPolyline
 62
7
  6
CONTINUOUS
 90
2
 70
0
 43
0.381000012
 10
5.2473302254
 20
9.7118476488
 10
5.2475802057
 20
9.7118476488
  0
LWPOLYLINE
  5
254
100
AcDbEntity
  8
Defpoints
100
AcDbPolyline
 62
7
  6
CONTINUOUS
 90
2
 70
0
 43
0.381000012
 10
5.2521305608
 20
9.7118476488
 10
5.2523805412
 20
9.7118476488
  0
LWPOLYLINE
  5
255
100
AcDbEntity
  8
Defpoints
100
AcDbPolyline
 62
7
  6
CONTINUOUS
 90
2
 70
0
 43
0.381000012
 10
5.25128039
 20
9.7119308436
 10
5.251630204
 20
9.7119308436
  0
LWPOLYLINE
  5
256
100
AcDbEntity
  8
Defpoints
100
AcDbPolyline
 62
7
  6
CONTINUOUS
 90
3
 70
0
 43
0.381000012
 10
5.2465303675
 20
9.7123476095
 10
5.246730431
 20
9.7123476095
 10
5.2468302647
 20
9.7122636225
  0
LINE
  5
257
100
AcDbEntity
  8
0
100
AcDbLine
 62
7
  6
CONTINUOUS
 10
10.4962332271
 20
0.0
 11
10.4962332271
 21
10.9531794642
  0
LINE
  5
258
100
AcDbEntity
  8
0
100
AcDbLine
 62
7
  6
CONTINUOUS
 10
9.2453700163
 20
10.9531791664
 11
1.2453425738
 21
10.9531791664
  0
LINE
  5
259
100
AcDbEntity
  8
0
100
AcDbLine
 62
7
  6
CONTINUOUS
 10
0.0
 20
10.9531794642
 11
10.4962332271
 21
10.9531794642
  0
LINE
  5
25A
100
AcDbEntity
  8
0
100
AcDbLine
 62
7
  6
CONTINUOUS
 10
7.0153643547
 20
10.3681248529
 11
7.0660135219
 21
10.3603290967
  0
ARC
  5
25B
100
AcDbEntity
  8
0
100
AcDbCircle
 62
7
  6
CONTINUOUS
 10
-156.3384641778
 20
-1902.5852807942
 40
1919.9942964681
100
AcDbArc
 50
85.0908038905
 51
85.1160598536
  0
ARC
  5
25C
100
AcDbEntity
  8
0
100
AcDbCircle
 62
7
  6
CONTINUOUS
 10
-74.6015126383
 20
5.9140238231
 40
79.4092079528
100
AcDbArc
 50
356.7868323134
 51
359.3471435133
  0
ARC
  5
25D
100
AcDbEntity
  8
0
100
AcDbCircle
 62
7
  6
CONTINUOUS
 10
6.1323919159
 20
1.5719268666
 40
8.9250148511
100
AcDbArc
 50
84.5560266491
 51
92.3406872037
  0
ARC
  5
25E
100
AcDbEntity
  8
0
100
AcDbCircle
 62
7
  6
CONTINUOUS
 10
0.1827964079
 20
1.4742017869
 40
5.6267679818
100
AcDbArc
 50
358.9923763096
 51
4.3705956737
  0
ARC
  5
25F
100
AcDbEntity
  8
0
100
AcDbCircle
 62
7
  6
CONTINUOUS
 10
9.2659541714
 20
8.781615736
 40
1.2999419381
100
AcDbArc
 50
150.5398807944
 51
167.565785003
  0
ARC
  5
260
100
AcDbEntity
  8
0
100
AcDbCircle
 62
7
  6
CONTINUOUS
 10
4.9929061429
 20
0.7925652973
 40
1.0553539775
100
AcDbArc
 50
0.0308399636
 51
39.3027836265
  0
ARC
  5
261
100
AcDbEntity
  8
0
100
AcDbCircle
 62
7
  6
CONTINUOUS
 10
5.4321264891
 20
0.8239392683
 40
0.9848257652
100
AcDbArc
 50
139.5360513436
 51
206.8873621273
  0
ARC
  5
262
100
AcDbEntity
  8
0
100
AcDbCircle
 62
7
  6
CONTINUOUS
 10
5.2574797395
 20
0.8432740046
 40
0.8433106823
100
AcDbArc
 50
213.4394038382
 51
267.81841284
  0
ARC
  5
263
100
AcDbEntity
  8
0
100
AcDbCircle
 62
7
  6
CONTINUOUS
 10
5.2555534128
 20
0.7927066696
 40
0.7927066696
100
AcDbArc
 50
267.81841284
 51
0.0308399636
  0
ARC
  5
264
100
AcDbEntity
  8
0
100
AcDbCircle
 62
7
  6
CONTINUOUS
 10
5.243127109
 20
1.3851998592
 40
0.5656546509
100
AcDbArc
 50
172.08822865
 51
358.9923763096
  0
ARC
  5
265
100
AcDbEntity
  8
0
100
AcDbCircle
 62
7
  6
CONTINUOUS
 10
7.19034429
 20
9.0499824413
 40
0.1246625626
100
AcDbArc
 50
179.3004331554
 51
207.2996641856
  0
ARC
  5
266
100
AcDbEntity
  8
0
100
AcDbCircle
 62
7
  6
CONTINUOUS
 10
5.8513365741
 20
8.8008784069
 40
0.1129720301
100
AcDbArc
 50
87.2419765579
 51
124.5523035871
  0
ARC
  5
267
100
AcDbEntity
  8
0
100
AcDbCircle
 62
7
  6
CONTINUOUS
 10
5.757534976
 20
8.9510311167
 40
0.0643824993
100
AcDbArc
 50
281.4079490628
 51
297.5000415876
  0
ARC
  5
268
100
AcDbEntity
  8
0
100
AcDbCircle
 62
7
  6
CONTINUOUS
 10
7.1232769948
 20
9.0196787551
 40
0.0513098757
100
AcDbArc
 50
211.582225905
 51
274.9616304103
  0
ARC
  5
269
100
AcDbEntity
  8
0
100
AcDbCircle
 62
7
  6
CONTINUOUS
 10
6.9753568092
 20
8.9894951062
 40
0.0399999998
100
AcDbArc
 50
275.4113465676
 51
0.0000001211
  0
ARC
  5
26A
100
AcDbEntity
  8
0
100
AcDbCircle
 62
7
  6
CONTINUOUS
 10
7.9639498391
 20
9.076040486
 40
0.035646674
100
AcDbArc
 50
276.4415486446
 51
335.9571265306
  0
ARC
  5
26B
100
AcDbEntity
  8
0
100
AcDbCircle
 62
7
  6
CONTINUOUS
 10
5.7688959279
 20
8.8953000698
 40
0.0075062234
100
AcDbArc
 50
244.9032066519
 51
280.54329784
  0
ARC
  5
26C
100
AcDbEntity
  8
0
100
AcDbCircle
 62
7
  6
CONTINUOUS
 10
5.7694761164
 20
8.8923171691
 40
0.0053590157
100
AcDbArc
 50
153.3204617921
 51
225.3835641488
  0
ARC
  5
26D
100
AcDbEntity
  8
0
100
AcDbCircle
 62
7
  6
CONTINUOUS
 10
6.1303418243
 20
17.9098973962
 40
9.0003363406
100
AcDbArc
 50
268.2580065368
 51
275.4113867052
  0
ARC
  5
26E
100
AcDbEntity
  8
0
100
AcDbCircle
 62
7
  6
CONTINUOUS
 10
1.2500087072
 20
9.7031791683
 40
1.2500087072
100
AcDbArc
 50
90.2138788052
 51
269.7861683424
  0
ARC
  5
26F
100
AcDbEntity
  8
0
100
AcDbCircle
 62
7
  6
CONTINUOUS
 10
9.2462329296
 20
9.7031791667
 40
1.2500002975
100
AcDbArc
 50
269.9604940981
 51
90.0395530265
  0
ARC
  5
270
100
AcDbEntity
  8
0
100
AcDbCircle
 62
7
  6
CONTINUOUS
 10
5.245356809
 20
9.6963534928
 40
1.1926174047
100
AcDbArc
 50
292.8195070221
 51
318.7219953066
  0
ARC
  5
271
100
AcDbEntity
  8
0
100
AcDbCircle
 62
7
  6
CONTINUOUS
 10
5.245356809
 20
9.6963534928
 40
1.1926174047
100
AcDbArc
 50
42.1570934185
 51
247.1773418151
  0
ARC
  5
272
100
AcDbEntity
  8
0
100
AcDbCircle
 62
7
  6
CONTINUOUS
 10
9.1558745543
 20
10.5757152653
 40
1.1802286841
100
AcDbArc
 50
191.722657057
 51
210.0817682399
  0
ARC
  5
273
100
AcDbEntity
  8
0
100
AcDbCircle
 62
7
  6
CONTINUOUS
 10
4.9875024951
 20
9.6647811549
 40
1.094077596
100
AcDbArc
 50
315.2639314185
 51
49.5715934562
  0
ARC
  5
274
100
AcDbEntity
  8
0
100
AcDbCircle
 62
7
  6
CONTINUOUS
 10
5.245356809
 20
9.7431791664
 40
0.9824635545
100
AcDbArc
 50
298.1872741079
 51
304.3991869526
  0
ARC
  5
275
100
AcDbEntity
  8
0
100
AcDbCircle
 62
7
  6
CONTINUOUS
 10
5.245356809
 20
9.7431791664
 40
0.9824635545
100
AcDbArc
 50
49.7754769903
 51
241.8084124166
  0
ARC
  5
276
100
AcDbEntity
  8
0
100
AcDbCircle
 62
7
  6
CONTINUOUS
 10
7.9435460751
 20
9.7017561202
 40
0.4887625275
100
AcDbArc
 50
335.4440837842
 51
25.7704561613
  0
ARC
  5
277
100
AcDbEntity
  8
0
100
AcDbCircle
 62
7
  6
CONTINUOUS
 10
5.245356809
 20
9.7431791664
 40
0.4689999551
100
AcDbArc
 50
358.1115057763
 51
181.4838637164
  0
ARC
  5
278
100
AcDbEntity
  8
0
100
AcDbCircle
 62
7
  6
CONTINUOUS
 10
8.1686048774
 20
9.8459887381
 40
0.4264371446
100
AcDbArc
 50
262.9723704487
 51
287.7232372239
  0
ARC
  5
279
100
AcDbEntity
  8
0
100
AcDbCircle
 62
7
  6
CONTINUOUS
 10
8.1649483683
 20
9.6134454393
 40
0.371936825
100
AcDbArc
 50
53.975159658
 51
128.0297297852
  0
ARC
  5
27A
100
AcDbEntity
  8
0
100
AcDbCircle
 62
7
  6
CONTINUOUS
 10
8.204127485
 20
9.6257889727
 40
0.3433450396
100
AcDbArc
 50
65.7891443151
 51
113.1363468879
  0
ARC
  5
27B
100
AcDbEntity
  8
0
100
AcDbCircle
 62
7
  6
CONTINUOUS
 10
8.1980341202
 20
9.7433901133
 40
0.3098865511
100
AcDbArc
 50
257.57672874
 51
307.832573326
  0
ARC
  5
27C
100
AcDbEntity
  8
0
100
AcDbCircle
 62
7
  6
CONTINUOUS
 10
8.1262885305
 20
9.7019936475
 40
0.2794122788
100
AcDbArc
 50
132.9307399618
 51
267.9782462238
  0
ARC
  5
27D
100
AcDbEntity
  8
0
100
AcDbCircle
 62
7
  6
CONTINUOUS
 10
5.6543197985
 20
10.2321998
 40
0.2756417859
100
AcDbArc
 50
69.191301031
 51
77.4521450811
  0
ARC
  5
27E
100
AcDbEntity
  8
0
100
AcDbCircle
 62
7
  6
CONTINUOUS
 10
8.2628198046
 20
9.5918115683
 40
0.1561333954
100
AcDbArc
 50
283.1802563586
 51
323.3609991973
  0
ARC
  5
27F
100
AcDbEntity
  8
0
100
AcDbCircle
 62
7
  6
CONTINUOUS
 10
8.1536552616
 20
9.8191194661
 40
0.1486979462
100
AcDbArc
 50
124.5990164066
 51
182.7338177087
  0
ARC
  5
280
100
AcDbEntity
  8
0
100
AcDbCircle
 62
7
  6
CONTINUOUS
 10
8.1462946535
 20
9.5824244382
 40
0.1424491274
100
AcDbArc
 50
173.6387003114
 51
263.9850126955
  0
ARC
  5
281
100
AcDbEntity
  8
0
100
AcDbCircle
 62
7
  6
CONTINUOUS
 10
5.762897974
 20
10.6105949752
 40
0.1212024267
100
AcDbArc
 50
264.9557483056
 51
272.3569358068
  0
ARC
  5
282
100
AcDbEntity
  8
0
100
AcDbCircle
 62
7
  6
CONTINUOUS
 10
7.1310619169
 20
10.3720514381
 40
0.0660961949
100
AcDbArc
 50
94.9730548299
 51
190.2156023717
  0
ARC
  5
283
100
AcDbEntity
  8
0
100
AcDbCircle
 62
7
  6
CONTINUOUS
 10
6.975274359
 20
10.4167396964
 40
0.040130817
100
AcDbArc
 50
357.1866960885
 51
84.487947094
  0
ARC
  5
284
100
AcDbEntity
  8
0
100
AcDbCircle
 62
7
  6
CONTINUOUS
 10
7.9632864106
 20
10.3282502709
 40
0.0377636821
100
AcDbArc
 50
11.722657057
 51
82.8478757446
  0
ARC
  5
285
100
AcDbEntity
  8
0
100
AcDbCircle
 62
7
  6
CONTINUOUS
 10
5.7050520617
 20
10.472349212
 40
0.0303228255
100
AcDbArc
 50
72.432558304
 51
103.7979446226
  0
ARC
  5
286
100
AcDbEntity
  8
0
100
AcDbCircle
 62
7
  6
CONTINUOUS
 10
5.6991317426
 20
10.4993730464
 40
0.0027560777
100
AcDbArc
 50
118.4183308207
 51
219.480935312
  0
ARC
  5
287
100
AcDbEntity
  8
0
100
AcDbCircle
 62
7
  6
CONTINUOUS
 10
26.5432401271
 20
3.4889195877
 40
20.8105556514
100
AcDbArc
 50
181.4321301422
 51
184.3705956737
  0
ENDSEC
  0
SECTION
  2
OBJECTS
  0
DICTIONARY
  5
C
100
AcDbDictionary
280
0
281
1
  3
ACAD_GROUP
350
D
  3
ACAD_MLINESTYLE
350
17
  3
ACAD_LAYOUT
350
1A
  3
ACAD_PLOTSETTINGS
350
19
  3
ACAD_PLOTSTYLENAME
350
E
  0
DICTIONARY
  5
D
102
{ACAD_REACTORS
330
C
102
}
100
AcDbDictionary
280
0
281
1
  0
ACDBDICTIONARYWDFLT
  5
E
102
{ACAD_REACTORS
330
C
102
}
100
AcDbDictionary
281
1
  3
Normal
350
F
100
AcDbDictionaryWithDefault
340
F
  0
DICTIONARY
  5
17
102
{ACAD_REACTORS
330
C
102
}
100
AcDbDictionary
280
0
281
1
  3
Standard
350
18
  0
DICTIONARY
  5
19
102
{ACAD_REACTORS
330
C
102
}
100
AcDbDictionary
281
1
  0
DICTIONARY
  5
1A
102
{ACAD_REACTORS
330
C
102
}
100
AcDbDictionary
281
1
  3
Model
350
288
  3
Layout1
350
289
  0
ACDBPLACEHOLDER
  5
F
102
{ACAD_REACTORS
330
E
102
}
  0
MLINESTYLE
  5
18
102
{ACAD_REACTORS
330
17
102
}
100
AcDbMlineStyle
  2
STANDARD
 70
0
  3

 62
256
 51
90.0
 52
90.0
 71
2
 49
0.5
 62
256
  6
BYLAYER
 49
-0.5
 62
256
  6
BYLAYER
  0
LAYOUT
  5
288
102
{ACAD_REACTORS
330
1A
102
}
100
AcDbPlotSettings
  1

  2
none_device
  4

  6

 40
0.0
 41
0.0
 42
0.0
 43
0.0
 44
266.6043239689
 45
278.210758391
 46
0.0
 47
0.0
 48
0.0
 49
0.0
140
0.0
141
0.0
142
1.0
143
1.0
 70
1024
 72
0
 73
0
 74
0
  7

 75
0
147
1.0
148
0.0
149
0.0
100
AcDbLayout
  1
Model
 70
0
 71
0
 10
0.0
 20
0.0
 11
10.4962332271
 21
10.9531794642
 12
0.0
 22
0.0
 32
0.0
 14
0.0
 24
0.0
 34
0.0
 15
0.0
 25
0.0
 35
0.0
146
0.0
 13
0.0
 23
0.0
 33
0.0
 16
1.0
 26
0.0
 36
0.0
 17
0.0
 27
1.0
 37
0.0
 76
0
330
201
345
0
346
0
  0
LAYOUT
  5
289
102
{ACAD_REACTORS
330
1A
102
}
100
AcDbPlotSettings
  1

  2
none_device
  4

  6

 40
0.0
 41
0.0
 42
0.0
 43
0.0
 44
266.6043239689
 45
278.210758391
 46
0.0
 47
0.0
 48
0.0
 49
0.0
140
0.0
141
0.0
142
1.0
143
1.0
 70
0
 72
0
 73
0
 74
0
  7

 75
0
147
1.0
148
0.0
149
0.0
100
AcDbLayout
  1
Layout1
 70
0
 71
1
 10
0.0
 20
0.0
 11
10.4962332271
 21
10.9531794642
 12
0.0
 22
0.0
 32
0.0
 14
0.0
 24
0.0
 34
0.0
 15
0.0
 25
0.0
 35
0.0
146
0.0
 13
0.0
 23
0.0
 33
0.0
 16
1.0
 26
0.0
 36
0.0
 17
0.0
 27
1.0
 37
0.0
 76
0
330
202
345
0
346
0
  0
ENDSEC
  0
EOF
